Guitar Tabs, Chords and Lyrics


Pain On Pain  Feeder

e|-0----1-----5----3----3----1----0----0-|


B|-1----3-----6----0----3----1----1----0-|


G|-0----2-----7----0----4----2----2----0-|

D|-2----0-----7----0----5----3----2----2-|
A|-3----x-----5----2----5----3----0----2-|
E|-3----x-----5----3----3----1----x----0-|
       [C]   [Dm]    [Am]   [Em]                    
St[C]ay for l[Dm]ife
For l[G]ife
[F]All you discover
St[C]ay for l[Dm]ife
For l[Am]ife
This m[Em]oment together
To he[Dm]al yours[F]elf
Love can he[Dm]al
C[F]an't watch you fall
[C]    P[Dm]ain on p[Am]ain
D[Am]on't come back here agai[C]n
Dm Am F(let ring)
Shame on pain

Took the last breath away

Break: C Dm G F
S[C]ave yours[Dm]elf
Yours[G]elf
l[F]ost for a second
S[C]ave yours[Dm]elf
Yours[Am]elf
b[Em]ury the concious
And h[Dm]eal yours[F]elf
You can he[Dm]al
C[F]an't watch you fall


[C]    P[Dm]ain on p[Am]ain
D[Am]on't come back here agai[C]n
Sh[Dm]ame on p[Am]ain
T[F]ook the last breath aw[C]ay
P[Dm]ain on p[Am]ain  [F]
Bridge: F Dm Am C ( x2)
pick the strings this way:

   [F]          [Dm]          [Am]          [C]               
e|-1----1----1----1----1----1----1----1-----|x2
B|---1----1----3----3----1----1----1----1---|
G|-----2----2----2----2----2----2----0----0-|
D|------------------------------------------|
A|------------------------------------------|
E|------------------------------------------|


Pain (x4)
Yeah

Break: C Dm G F

W[C]ait for l[Dm]ove
For l[G]ove
Yo[F]u know it can happen
W[C]ait for l[Dm]ove
For l[Am]ove
The t[Em]ouch of a hand
To h[Dm]eal yours[F]elf
You can he[Dm]al
C[F]an't watch you fall

[C]    P[Dm]ain on p[Am]ain
D[Am]on't come back here agai[C]n
Sh[Dm]ame on p[Am]ain
T[F]ook the last breath aw[C]ay
P[Dm]ain on p[Am]ain  [F]
Yeah!Feeder do it again!i love 'em!
hope it's right!rate :P

Important: The song above is NOT stored on the Chordie server. The original song is hosted at www.guitaretab.com. Chordie works as a search engine and provides on-the-fly formatting. Chordie does not index songs against artists'/composers' will. To remove this song please click here.

Text color:
Chord color:
Chord grids: 
Font size:    
Page size: 

Am C Dm Em F G
variations - click chord images

Login - add to songbook

Transpose chords

Tuning

Rating click stars to rate

Layout
Accuracy

SHARE PAGE  




You need to log in to post comments