Chordie logo

Save Us   Feeder



Hey guys,
I don't care what the other tabs say - this one is 100% right. Hope you enjoy. It's a 
song, but the videos really weird... whatever. Sorry if you think it's wrong at all, but 
is my first tab.

intro (clean)
E|------------------------------------------------------------------------|
B|------------------------------------------------------------------------|
G|14-14-14-14-14-14-14-14-14-14-14-14-14-14-14-14-14-14-14-14-14-14-14-14-|
D|------------------------14-14-14-14-14-14-14-14-14-14-14-14-14-14-14-14-|
A|------------------------------------------------12-12-12-12-12-12-12-12-|
E|------------------------------------------------------------------------|

E|------------------------|
B|------------------------|
G|14-14-14-14-14-14-14-14-|
D|14-14-14-14-14-14-14-14-|
A|12-12-12-12-12-12-12-12-|
E|------------------------|

verse (clean)
E|----------------------------------------------------|
B|----------------------------------------------------|
G|14-14-14-14-14-14-14-14-14-14-11-11-11-11-11-7-7-7-7| x8
D|14-14-14-14-14-14-14-14-14-14-11-11-11-11-11-7-7-7-7|
A|12-12-12-12-12-12-12-12-12-12-9--9--9--9--9--5-5-5-5|
E|----------------------------------------------------|

There are random little rhythmic changes in between the chord changes - listen to the song.

chorus (distortion)
E|---------------------------------|
B|---------------------------------|
G|---------------------------------|  x4
D|7-7-7-7-7-7-7-7-7-4-4-4-4-2-2-2-2|
A|7-7-7-7-7-7-7-7-7-4-4-4-4-2-2-2-2|
E|5-5-5-5-5-5-5-5-5-2-2-2-2-0-0-0-0|

E|------------------------|
B|------------------------|
G|-----------------4-4-7-7|
D|7-7-7-7-7-7-7-7--4-4-7-7|
A|7-7-7-7-7-7-7-7--2-2-5-5|
E|5-5-5-5-5-5-5-5---------|

Again, there are random little rhythmic changes - listen to the song for the strum pattern.

solo (distortion)
E|----------------|    |---------------------|
B|--0-0-----0-0-2b|    |--0-0-----0-0-2brbrbr|
G|------2---------| x3 |------2--------------|
D|2-------2-------|    |2-------2------------|
A|----------------|    |---------------------|
E|----------------|    |---------------------|

In this bit, b means bend the string, and r means return.


ending (distortion)
E|-------------------------------------------------------------------|
B|-------------------------------------------------------------------|
G|-------------------------------------------------------------------| x2
D|12-12-12-11-9-11-12-12-12-11-16-14-12-12-12-11-9-11-12-12-12-11-9-7|
A|-------------------------------------------------------------------|
E|-------------------------------------------------------------------|

end on
E|-------|
B|-------|
G|-------|

D|---7---|
A|---7---|
E|---5---|



Important: The song above is NOT stored on the Chordie server. The original song is hosted at www.guitaretab.com. Chordie works as a search engine and provides on-the-fly formatting. Chordie does not index songs against artists/composers will. To remove this song please click here.

This song is displayed as text-only. Transposing and tuning is only available for chordpro-songs.

Login - add to songbook

Rating click stars to rate

Layout
Accuracy

SHARE PAGE  

You need to log in to post comments