Guitar Tabs, Chords and Lyrics


Katie W   Fenix Tx



=Let ring

E--------------------
B--------------------
G--------------------  x2 No Gain Hit notes near the bridge
D-33-3/5-33-1/3-3-3--
A-44-----11-----1---3
E--------------------

E--------------------------
B--------------------------
G--------------------------  
D-3-3-----4-4-----44-6666-- x3 put some gain on
A-3-3-----4-4-----44-6666--
E-1-1-1/8-2-2-2/8-22-4444--

E--------------------------
B--------------------------
G--------------------------  x on the 4th time  
D-3-3-----4-4-----44-6>---- 
A-3-3-----4-4-----44-6>----


Important: The song above is NOT stored on the Chordie server. The original song is hosted at www.guitaretab.com. Chordie works as a search engine and provides on-the-fly formatting. Chordie does not index songs against artists'/composers' will. To remove this song please click here.

This song is displayed as text-only. Transposing and tuning is only available for chordpro-songs.

Login - add to songbook

Rating click stars to rate

Layout
Accuracy

SHARE PAGE  




You need to log in to post comments