Chordie logo

Two Sisters   Fiction Plane



-------------------------------------------------------------------------------
			     two sisters - fiction plane
Tabbed by:D-alis
Email:vage_voszie@hotmail.com

Tuning:standard

Hope this is ok, enjoy!!:)


Intro-chorus

e|-x-x-77-x-x-77-x-x-55-x-x-55-x-x-55-x-x-55-x-x-77-x-x-77-x-x-8-8-x-x-8-8--|
B|-x-x-88-x-x-88-x-x-55-x-x-55-x-x-55-x-x-55-x-x-77-x-x-77-x-x-8-8-x-x-8-8--|
G|-x-x-99-x-x-99-x-x-77-x-x-77-x-x-55-x-x-55-x-x-77-x-x-77-x-x-9-9-x-x-9-9--|
D|-x-x-99-x-x-99-x-x-77-x-x-77-x-x-77-x-x-77-x-x-99-x-x-99-x-x-1010x-x-1010-|
A|-x-x-77-x-x-77-x-x-55-x-x-55-x-x-77-x-x-77-x-x-99-x-x-99-x-x-1010x-x-1010-|
E|-x-x-77-x-x-77-x-x-55-x-x-55-x-x-55-x-x-55-x-x-77-x-x-77-x-x-8-8-x-x-8-8--|

e|-x-x-33-x-x-33-x-x-77-x-x-77-x-x-77-x-x-77/
B|-x-x-33-x-x-33-x-x-88-x-x-88-x-x-77-x-x-77/
G|-x-x-44-x-x-44-x-x-99-x-x-99-x-x-88-x-x-88/   4X
D|-x-x-55-x-x-55-x-x-99-x-x-99-x-x-99-x-x-99/
A|-x-x-55-x-x-55-x-x-77-x-x-77-x-x-99-x-x-99/
E -x-x-33-x-x-33-x-x-77-x-x-77-x-x-77-x-x-77/

Verse

e|-x-x-33-x-x-33-x-x-77-x-x-77-x-x-55-x-x-55-x-x-55-x-x-55/
B|-x-x-33-x-x-33-x-x-77-x-x-77-x-x-55-x-x-55-x-x-55-x-x-55/
G|-x-x-44-x-x-44-x-x-77-x-x-77-x-x-66-x-x-66-x-x-66-x-x-66/   4X
D|-x-x-55-x-x-55-x-x-99-x-x-99-x-x-77-x-x-77-x-x-77-x-x-77/
A|-x-x-55-x-x-55-x-x-99-x-x-99-x-x-77-x-x-77-x-x-77-x-x-77/
E|-x-x-33-x-x-33-x-x-77-x-x-77-x-x-55-x-x-55-x-x-55-x-x-55/

e|-8---5---8---5-x-x-8-8-x-x-8-8-x-x-55-x-x-55-x-x-8-8-x-x-8-8-x-x-1010-x-x-|
B|-8---5---8---5-x-x-8-8-x-x-8-8-x-x-55-x-x-55-x-x-8-8-x-x-8-8-x-x-1010-x-x-|
G|-9---5---9---5-x-x-9-9-x-x-9-9-x-x-55-x-x-55-x-x-9-9-x-x-9-9-x-x-1111-x-x-|
D|-10--7---10--7-x-x-1010x-x-1010x-x-77-x-x-77-x-x-1010x-x-1010x-x-1212-x-x-|
A|-10--7---10--7-x-x-1010x-x-1010x-x-77-x-x-77-x-x-1010x-x-1010x-x-1212-x-x-|
E|-8---5---8---5-x-x-8-8-x-x-8-8-x-x-55-x-x-55-x-x-8-8-x-x-8-8-x-x-1010-x-x-|

e|-1010/
B|-1010/
G|-1111/
D|-1212/
A|-1212/
E|-1010/


Intro-chorus   2X

Verse   4X

Intro-chorus   2X


Bridge

e|-7--7--7--7--7--7--7--7--8--8--8--8--3--3--3--3-|
B|-8--8--8--8--7--7--7--7--8--8--8--8--3--3--3--3-|
G|-9--9--9--9--8--8--8--8--9--9--9--9--4--4--4--4-|
D|-9--9--9--9--9--9--9--9--10-10-10-10-5--5--5--5-|
A|-7--7--7--7--9--9--9--9--10-10-10-10-5--5--5--5-|
E|-7--7--7--7--7--7--7--7--8--8--8--8--3--3--3--3-|

e|-8--8--8--8--8--8--8--8--3--3--3--3-----------|
B|-8--8--8--8--8--8--8--8--3--3--3--3-----------|
G|-9--9--9--9--8--8--8--8--4--4--4--4-----------|
D|-10-10-10-10-10-10-10-10-5--5--5--5-----------|
A|-10-10-10-10-10-10-10-10-5--5--5--5-----------|
E|-8--8--8--8--8--8--8--8--3--3--3--3----2~--1~-|

Solo

e|--------------------------------------------------------------------------|
B|------8-8------------8-8-10b-----------8-8---15----12--12-10--------------|
G|----9-----9~-------9---------9-------9-----9-----------------12-14--14-12-|
D|--------------------------------------------------------------------------|
A|--------------------------------------------------------------------------|
E|-0------------0------------------0----------------------------------------|

e|---------------------------------------------------------------------------|
B|----------------------------12--12-10--------------------------------------|
G|------------------12--12\11-----------12-14--14-12-------------------------|
D|-14-14--14-12-14-----------------------------------14-14-14-12-14----12-14-|
A|-------------------------------------------------------------------14------|

E|---------------------------------------------------------------------------|


Intro-chorus   4X

Final

e|----|
B|----|
G|----|
D|-2--|
A|-2--|
E|-0--|

| /  slide up
| \  slide down
| h  hammer-on
| p  pull-off
| ~  vibrato
| +  harmonic
| x  Mute note


Important: The song above is NOT stored on the Chordie server. The original song is hosted at www.guitaretab.com. Chordie works as a search engine and provides on-the-fly formatting. Chordie does not index songs against artists/composers will. To remove this song please click here.

This song is displayed as text-only. Transposing and tuning is only available for chordpro-songs.

Login - add to songbook

Rating click stars to rate

Layout
Accuracy

SHARE PAGE  



You need to log in to post comments