Chordie logo

Its Not The Only Way To Feel Happy   Field Music



-------------------------------------------------------------------------------
	  IT'S NOT THE ONLY WAY TO FEEL HAPPY- Field Music
-------------------------------------------------------------------------------
I was sad there were no tabs from this excellent band, so... yep.
Im pretty sure this is right.

Tuning:standard


ACOUSTIC INTRO
e|-------------------------------------------------------------------|
B|1---4-----------------------------2-----------------------2--------|
G|1-----------------2-----------3----------------2------2------------|
D|-------------3----------------3------------4----------2------------|
A|-------------0--------------------2--------2-----------------------|
E|----4-------------3----------------------------3----------2--------|


VERSE
e|-----------------------|
B|-----------------------|
G|-----------------------| repeated
D|-----6------------2----|
A|-----------------------|
E|2/7----------7\2-------|


CHORUS
e|---------------------|     a    |----------------------|
B|---------------------|    few   |--------------------0-|
G|---------------------|  times,  |----------------------|
D|-----6------------4--|   then   |-----6-------4--------|
A|---------------------|    at   |----------------------|
E|2/7----------7\2-----| the end  |2/7------7\5----2-----|


BRIDGE/INSTRUMENTAL/OUTRO.. whatever you want to call it
Starts with:
e|------------------|
B|----5-------------| 
G|4b6---6b4---------|
D|------------------|
A|------------------|
E|------------------|							  
now just play something along these lines.. it's different from measure   
to measure, and it's sequenced a bit far back on the recording,           
but it basically alternates between B and a barred A.. something like.    
e|------------|-----------------|				          
B|---4----4---|-------5-----5---|
G|4------4----|-4/6------4h6----|
D|---4--------|-------7---------|
A|------------|-----------------|  
E|------------|-----------------|					  
Just mess around with these two chords like this and it'll sound good.    
You can also continue to do the sliding 2/7 , 7\2  bass string here.      
After each two measures there's a little fill, which is the same          
as or some slight variation on the little riff that starts this section.


ENDING
e|-5/7--|
B|-6/8--| 
G|-7/9--| 
D|------|
A|------|
E|------|

The band:
http://www.field-music.co.uk/

The label:
http://memphis-industries.com/


| /  slide up
| \  slide down
| h  hammer-on
| b  bend


Important: The song above is NOT stored on the Chordie server. The original song is hosted at www.guitaretab.com. Chordie works as a search engine and provides on-the-fly formatting. Chordie does not index songs against artists/composers will. To remove this song please click here.

This song is displayed as text-only. Transposing and tuning is only available for chordpro-songs.

Login - add to songbook

Rating click stars to rate

Layout
Accuracy

SHARE PAGE  



You need to log in to post comments