eToCache5 = ""; ?> Grand Unification Part 2 by Fightstar - guitar chords, guitar tabs and lyrics - chordie

Grand Unification Part 2

Fightstar

 CDmAmF
  With all apologies you wake me up
 DmAmCF
  You hold the porcelain to take me home

 CAmCadd9F
  Hold my hand until the waves come
 DmAmCF
  Hold my hand until the waves come

 AmG
e-------0------------0----------3-------------3----------------------
b----1----1-1-----1---1-0-----3---3-3-------3---3-3------------------
g---2-2----2-----2-2---2-----0-0---0-------0-0---0-------------------
d--------------------------------------------------------------------
a-0------------0-----------------------------------------------------
e---------------------------3-------------3--------------------------

This is our last

 CEmasus2
e--------------------------------------------------------------------
b-1------0--------0----1-3-3-----------------------------------------
g----0------0--------2--2-2------------------------------------------
d---2------2--------2------------------------------------------------
a-3------2--------0----0-0-------------------------------------------
e--------------------------------------------------------------------

Take care love

 AmAsus2
e--------------------------------------------------------------------
b-1-----0------------------------------------------------------------
g----2-----2---------------------------------------------------------
d---2-----2----------------------------------------------------------
a-0-----0------------------------------------------------------------
e--------------------------------------------------------------------

It won't stop

 AmAsus2
e--------------------------------------------------------------------
b-1-----0------------------------------------------------------------
g----2-----2---------------------------------------------------------
d---2-----2----------------------------------------------------------
a-0-----0------------------------------------------------------------
e--------------------------------------------------------------------

It won't stop
 GF
 AAAAAAAAAAAAAAAAAAAAAAAa TTTTTTTTTThhhhhhhhiiiiiiinnnnnnnngggggggg

 CDmAmF
  With all apologies you wake me up
 DmAmCF
  You hold the porcelain to take me home

 Dm
  Hold my hand until
-------------------------------------------rock----------------------

 C
 the waves come
 F
 The waves come

 AmF
 Just hold my hand until
 C
 the waves come
 CF
 The waves come around

Well the Einstein equations are sort of the Mount Everest of
theoretical physics and, well we want to get to the top.
We want to be able to, uhm, make Einstein's equations routine to solve.
We would like to have undergraduates be able to solve Einstein's
equations routinely. Might as well have grade school kids doing it
because, you know, the Physics is is is intuiative. I mean, grade school kids
know about black holes and, and they might want to know, well, gosh,
what happens if I drop a black hole on a black hole?

do you have questions are you wanna give some other tings: voetbalgek5@hotmail.com


Am Asus2 C Cadd9 Dm Em F G
variations - click chord images
Transpose chords:
Tuning:
Cool service:
View: Size:
A  A  A
Rating:
Layout:
  • Currently 3/5 Stars.
  • 1
  • 2
  • 3
  • 4
  • 5
 
Accuracy:
  • Currently 0/5 Stars.
  • 1
  • 2
  • 3
  • 4
  • 5
 
click stars to rate
Chordie recommends:
Learn to play guitar with video-based, online guitar lessons at JamPlay.com
Songbook:
Login to add this song to your songbook
Support the artist
Preview/buy this song
MSN Music
Why this non-profit ad?

 
login to add comments/video/corrections