Eternity Memory Of Lightwave

Final Fantasy

Cadd9(X2003X) -- D5(XX0230)-- Em(022030) -- D5 -- Bm?(X2003X) -- D5 -- Em

------------------------------------------|
-------3----------------------------------|
---0-----0--------------------------------|
-0---0------------------------------------|
3-----------------------------------------|
------------------------------------------|

 CDEmBm
-3-2---------3-2-------0--2-2-0---2------|
-1---3-1-----3---3-1---0--0-0-0---3------|
-------------2---------0-----------------|
-------------0---------------------------|
-3--------------------------------2------|
-----------------------0--0-0------------| x22


 CDDCDGC
-3-2---------3-2-------5-5--3-5-7-3--------|
-1---3-1-----3---3-1---7-7--5-7-8-5--------|
-------------2-----------------------------|
-------------0-----------------------------|
-3-----------------------------------------|
-----------------------0----0-0-0----------|


 CDEmBm
-3-2---------3-2-------0--2-2-0---2------|
-1---3-1-----3---3-1---0--0-0-0---3------|
-------------2---------0-----------------|
-------------0---------------------------|
-3--------------------------------2------|
-----------------------0--0-0------------|x2


 CDFGFGFGFC
-3-2---------3-2-------8--7-8--10-8--7-8--3--------|
-1---3-1-----3---3-----10-8-10-12-10-8-10-5--------|
-------------2-------------------------------------|
-------------0-------------------------------------|
-3-------------------------------------------------|
-----------------------0--0-0--0--0--0-0-0---------|


Part 2

Cadd9(X2003X) -- D5(XX0230)-- Em(022030) -- D5 -- Bm?(X2003X) -- D5 -- Em


repeat Part 1 & part 2 x2

Part 3

Cadd9 G *now use notes on this scale

--0-------------------------------------------------------------------------|
-3---3--0h1h3--3--1---0-----------------------------------------------------|
------------------------2--4--0---------2--44--2---2-------------2-4-0------|
----------------------------------2-4-5----------5---5-4-2-0----------------|
-3----------2----------------------------------------------------3----------|
----------------------------------0------------0-----0----------------------|

C scale D (all D chords)
--0---------0-2---2---5---10--2--5-------------------------------------|
-3----------3-----3---7---10--3--3-------------------------------------|
------------2-----2---7---11--2--2-------------------------------------|
------------0-----0-----------0----------------------------------------|
-3---------------------------------------------------------------------|
-----------------------------------------------------------------------|


repeat parts as needed.




Bm C D Em F G
variations - click chord images
Transpose chords:
Tuning:
Cool service:
View: Size:
A  A  A
Rating:
Layout:
  • Currently 2.6/5 Stars.
  • 1
  • 2
  • 3
  • 4
  • 5
 
Accuracy:
  • Currently 3.5/5 Stars.
  • 1
  • 2
  • 3
  • 4
  • 5
 
click stars to rate
Chordie recommends:
Get acoustic guitar lessons and electric guitar lessons at JamPlay.com
Songbook:
Login to add this song to your songbook
Support the artist
Preview/buy this song
MSN Music
Why this non-profit ad?

 
login to add comments/video/corrections