Insomniac Meat

Finch

 4/4
  Gtr I
 EEEEEEEEEEEEEEEEEEEEEEEEEEEEEEEE
|-------------------------------------------------------------------------------|
|-------------------------------------------------------------------------------|
|-12-12-12-12-12-12-12-12-11-11-11-11-9-9-9-9-8-8-8-8-8-8-8-8-7-7-7-7-7-7-7-7---|
|--9--9--9--9--9--9--9--9--7--7--7--7-5-5-5-5-9-9-9-9-9-9-9-9-8-8-8-8-8-8-8-8---|
|-10-10-10-10-10-10-10-10--9--9--9--9-7-7-7-7-9-9-9-9-9-9-9-9-8-8-8-8-8-8-8-8---|
|---------------------------------------------7-7-7-7-7-7-7-7-6-6-6-6-6-6-6-6---|


W E E E E E E E E
|----------|-------------------------|
|----------|-------------------------|
|-7--------|-12-12-12-12-12-12-12-12-|
|-8--------|--x--x--x--x--x--x--x--x-|
|-8--------|-10-10-10-10-10-10-10-10-|
|-6--------|--0--0--0--0--0--0--0--0-|


 EEEEEEEEEEEEEEEEEEEEEEEE
|---------------------|-----------------|-----------------|
|---------------------|-----------------|-----------------|
|-11-11-11-11-9-9-9-9-|-8-8-8-8-8-8-8-8-|-7-7-7-7-7-7-7-7-|
|--x--x--x--x-x-x-x-x-|-8-8-8-8-9-9-9-9-|-8-8-8-8-8-8-8-8-|
|--9--9--9--9-7-7-7-7-|-9-9-9-9-9-9-9-9-|-8-8-8-8-8-8-8-8-|
|--0--0--0--0-0-0-0-0-|-7-7-7-7-7-7-7-7-|-6-6-6-6-6-6-6-6-|


 EEEEEEEEEEEEEEEEEEEEEEEEEEE
|--------------------------------|----------------------------|
|--------------------------------|----------------------------|
|--------------------------------|----------------------------|
|-5-----4-----7-----9------7-----|-8-----8-----8-----8--------|
|---7-----7-----9-----10-----9---|-7-7-7-7-7-7-7-7-7-7-7-7----|
|-----0-----0-----0------0-----0-|-0-0-0-0-0-0-0-0-0-0-0-0----|				






























E
variations - click chord images
Transpose chords:
Tuning:
Cool service:
View: Size:
A  A  A
Rating:
Layout:
  • Currently 2.7/5 Stars.
  • 1
  • 2
  • 3
  • 4
  • 5
 
Accuracy:
  • Currently 2.5/5 Stars.
  • 1
  • 2
  • 3
  • 4
  • 5
 
click stars to rate
Chordie recommends:
Get acoustic guitar lessons and electric guitar lessons at JamPlay.com
Songbook:
Login to add this song to your songbook
Support the artist
Preview/buy this song
MSN Music
Why this non-profit ad?

 
login to add comments/video/corrections