""; ?> insertsongandartist - guitar chords, guitar tabs and lyrics - chordie

When I Look Into Your Eyes

Firehouse

e --------------------------------------------------|


B ---------------------1-----0------0---------------|


G -------0------2--------0-----0------0-------------|


D -----0---0------0--------0-----0------------------|


A --------------------------------------------------|


E --3--------3-------3------------------------------|


e --------------------------------------------------|


B ---------------------1-----0---------0------------|


G -------0------2--------0-----0-----2--------------|


D -----0---0------0--------0-----0------------------|


A --------------------------------------------------|


E --3--------3-------3------------------------------|


 GBmin7C
 I see forever when I look in your eyes
 AmD7Gsus4G
 You're all I've ever wanted, I always want you to be mine
 GBmin7C
 Let's make a promise till the end of time
 AmD7Gsus4G
 We'll always be together and our love will never die

 EmC
 So here we are face to face
 GDsus4DDsus2D
And heart to heart     
 EmCGDsus2DDsus4D
 I want you to know we will never be apart     
 EmCGDsus4DDsus2D
 Now I believe that wishes can come true     
 CD
 Cause I see my whole world, I see only you

 GBmin7C
When I look into your eyes
 GBmin7
I can see how much I love you
 CDsus4DDsus2D
And it makes me realize     
 GBmin7C
When I look into your eyes
 Am
I see all my dreams come true
 CDG
When I look into your eyes

 GBimn7C
 I looked for you all of my life
 AmD7Gsus4G
 And now that I've found you we will never say goodbye
 GBmin7C
 Can't stop this feeling and there's nothing I can do
 CAmD
 Cause I see everything, when I look at you

 GBmin7C
When I look into your eyes
 GBimn7
I can see how much I love you
 CDsus4DDsus2D
And it makes me realize     
 GBmin7C
When I look into your eyes
 Am
I see all my dreams come true
 CDG
When I look into your eyes

 DCGDCDGDCAmD
(ABOVE ARE THE CHORDS PLAYED DURING THE SOLO!!)
e[--------------------------------------10----10----10---10-]
B[-------------------------8-7-8-8^-7-8---------------------]
G[-7~~-9^-9-9^-7-9^----7-9-----------------8-7---8-7--8-7---]
D[-----------------7--7-------------------------------------]
A[----------------------------------------------------------]
E[----------------------------------------------------------]
e[-12^-12-12^-10-12^-12-12---]
B[-------------------------10]
G[---------------------------]
D[---------------------------]
A[---------------------------]
E[---------------------------]
E[---------15^-15-14-15}-17-15-14----15-14-12-14-12-12p11p9--]
B[-14-15-17------------}----------17-------------------------]
G[---------------------}-------------------------------------]
D[---------------------}-------------------------------------]
A[---------------------}-------------------------------------]
E[---------------------}-------------------------------------]


 AC#m7DDsus2D
When I look into your eyes   
 AC#m7DE
I can see how much I love you and it makes me realize
 AC#m7DDsus2D
When I look into your eyes   
 AC#m7DE
We will always be together and our love will never die

 AC#m7D
When I look into your eyes
 BmC#m7DEA
I see all my dreams come true when I look into your eyes
 DEA
When I look into your eyes

Outro:
e --------------------------------------------]
B -------------------3-----2------2-----------]
G -------2------4------2-----2------2---------]
D -----2---2------2------2-----2--------------]
A ---0-------0------0-------------------------]
E --------------------------------------------]
e ------------------------------------------]
B -------------------3-----2---------2------]
G -------2------4------2-----2----4---------]
D -----2---2------2------2-----2------------]
A ---0-------0------0-----------------------]
E ------------------------------------------]


Any question and answer mail me at norman_nts@yahoo.com
Nevermind The Darkness, We Still Can Find The Way!!