Akoy Sayo

First Circle

 AM7Bm7C#m7DM7Dm7F#m7Bm7+E
e|--0--|--2--|--4--|--5--|--5--|--2--|--2---|--0--|
B|--2--|--3--|--5--|--7--|--6--|--2--|--2h3-|--0--|
G|--1--|--2--|--4--|--6--|--5--|--2--|--2---|--1--|
D|--2--|--4--|--6--|--7--|--7--|--2--|--4---|--2--|
A|--0--|--2--|--4--|--5--|--5--|--4--|--2---|--2--|
E|-----|-----|-----|-----|-----|--2--|------|--0--|

 E7susE7DmAA7F#m
e|--3--|--0--|--5--|--0--|--0--|--2--|
B|--0--|--0--|--6--|--2--|--2--|--2--|
G|--1--|--1--|--7--|--2--|--0--|--2--|
D|--0--|--0--|--7--|--2--|--2--|--4--|
A|--2--|--2--|--5--|--0--|--0--|--4--|
E|--0--|--0--|-----|-----|-----|--2--|


Intro: AM7-Bm7-C#m7-DM7-Dm7-(2x)

 AM7Bm7C#m7DM7Dm7
e|-----------0x---------------------5----------------|
B|--2-------------3--5-----------------7-------6-----|
G|--------1----------------------6--------6----------|
D|-----2----------------------7--------------7-------|
A|--0-------------2--4-----5-------------------5-----|
E|---------------------------------------------------|

 AM7Bm7C#m7DM7Dm7
e|-----------0x------------------------5--------------|
B|--2-------------3--5--------------7-----7-----6-----|
G|--------1----------------------6-----------6--------|
D|-----2----------------------7-----------------------|
A|--0-------------2--4-----5--------------------5-----|
E|----------------------------------------------------|


Stanza 1:

 AM7F#m7
   Ikaw na ang may sabi
Bm7+ E E7sus, E7
Na ako'y mahal mo rin
 AM7F#m7
   At sinabi mo
 Bm7+E
   Ang pag-ibig mo'y di magbabago

Chorus I:
 DM7Dm
Ngunit bakit sa tuwing ako'y lumalapit
 AA7
Ika'y lumalayo 
 DM7Dm
 Puso'y laging nasasaktan
 AF#m7
Pag may kasama kang iba  
 Bm7C#m7Dm7
Di ba nila alam       
Bm7 C#m7 Dm7hold
Tayo'y nagsumpaan
DM7hold Dmhold
Na ako'y sayo, at ika'y akin lamang

Repeat Intro:

Stanza II: (Same as in stanza 1)

 AM7F#m7
    Kahit anong mangyari
Bm7+ E E7sus , E
Pag-ibig ko'y sayo parin
 AM7F#m7
    Kahit ano pa
 Bm7+
    Ang sabihin nila'y
 E
    Ikaw parin

Chorus II:
 DM7
Ang mahal
 Dm
Maghihintay ako
 AA7
Kahit kailan   
 DM7
Kahit na
 Dm
Umabot pang ako'y
 AF#m7
Nasa langit na     
 Bm7C#m7Dm7
At kung di ka Makita        
Bm7 C#m7 Dm7hold
Makikiusap kay bathala
Bm7° Bm7°
Na ika'y hanapin,
Dm7° Dm7°
At sabihin
DM7hold Dm7hold A
Ipaalala sa iyo
F#m7 Bm7 C#m7 Dm7hold
Ang nakalimutang sumpaan
DM7hold Dmhold
Na ako'y sayo, at ika'y akin lamang

Adlib: A, F#m, Bm7+, E (2x)

Guitar 1: strumming pattern

Guitar 2:

Note: bà> bend (just control the bend if full or 1/2)
và> vibrato
hà>hammer
/à> slide
° à> fast hold(mabilis yung pag hit sa chords)
 AF#m
e|-------------0---------------------------------|
B|---------------2-------------------------------|
G|---------2-4---------4--2—1x-1h2--1------------|
D|-----2-4----------------------------4--2-4-----|
A|-0-2-------------------------------------------|
E|-----------------------------------------------|

 Bm7+
e|------------------------------------------------|
B|-----------------------------------------5------|
G|--------------------------2---------4/6---------|
D|-2--------------------0-2---4b------6/7---------|
A|---5-4-2----0-2-4-5-----------------------------|
E|------------------------------------------------|

 EA
e|-------------------------5h7--x-5-----------|
B|-------------------------5----x-5-----------|
G|-2h1-------2h1-----------6----x-6-----------|
D|-2---2-----2---2---------7----x-7-----------|
A|--------------------------------------------|
E|--------------------------------------------|

 F#m
e|--------------------------------------|
B|--------------------------------------|
G|-----6--4-----2—-2v-----2-------------|
D|-----7--6-----4—-4v-----4-------------|
A|--5-----------------------------------|
E|--------------------------------------|

 Bm7E
e|-12--10-9----9-----------------------------9-----------------------|
B|-10-------12---12-10-9-----------------------12-10-9---------------|
G|-11------------------11b-----11-9-----11b------------11-11b---11-9-|
D|-------------------------------------------------------------------|
A|-------------------------------------------------------------------|
E|-------------------------------------------------------------------|


Chorus III:

 DM7
Umasa ka
 Dm
Maghihintay ako
 AA7
Kahit kailan   
 DM7
Kahit na
 Dm
Umabot pang ako'y
 AF#m7
Nasa langit na   
 Bm7C#m7Dm7
At kung di ka makita       
Bm7 C#m7 Dm7hold
Makikiusap kay bathala
Bm7° Bm7°
Na ika'y hanapin,
Dm7° Dm7°
At sabihin
Dm7hold A
Ipaalala sa iyo
F#m7 Bm7 C#m7 Dm7hold
Ang nakalimutang sumpaan
DM7hold Dmhold
Na ako'y sayo, at ika'y akin lamang

Outro: AM7-Bm7-C#m7-DM7-Dm7- Ahold

 AM7Bm7C#m7DM7Dm7
e|-----------0x-------------------------5--------5----|
B|--2-------------3--5---------------------7-----6----|
G|--------1--------------------------6--------6--5----|
D|-----2----------------6x--------7--------------7----|
A|--0-------------2--4-----4x--5-----------------5----|
E|----------------------------------------------------|

Ahold
e|-------0---------|
B|-------2---------|
G|-------2---------|
D|-------2---------|
A|-------0---------|
E|-----------------|				



A A7 Am7 Bm7 Bm7+ C#m7 Dm7 Dm Dm7 E E7 E7sus F#m F#m7
variations - click chord images
Transpose chords:
Tuning:
Cool service:
View: Size:
A  A  A
Rating:
Layout:
  • Currently 2.9/5 Stars.
  • 1
  • 2
  • 3
  • 4
  • 5
 
Accuracy:
  • Currently 2.7/5 Stars.
  • 1
  • 2
  • 3
  • 4
  • 5
 
click stars to rate
Chordie recommends:
Learn to play guitar with video-based, online guitar lessons at JamPlay.com
Songbook:
Login to add this song to your songbook
Support the artist
Preview/buy this song
MSN Music
Why this non-profit ad?

 
login to add comments/video/corrections