"yes"; ?> Get Your Riot Gear by Five Iron Frenzy - guitar chords, guitar tabs and lyrics - chordie

Get Your Riot Gear

Five Iron Frenzy

e|-----------------------------------------------------------------------|

B|----10---12-9---------10--12-14-12\10\9-10--12-9----------10--9---7----|
G|------11------10H11-10--11----------------11-----10H11-10---11-9-7-10--|
D|-----------------------------------------------------------------------|
A|-----------------------------------------------------------------------|
E|-----------------------------------------------------------------------|
e|-------------|
B|10--9--7-----|
G|-11--9--7-10-|
D|-------------| x2 (varies throughout the song, just listen)
A|-------------|
E|-------------|

 EAEAC#F#mDE
e|-----------------------------------------------------------------------|
B|-0-0---2-2---0-0---2-2-2---6-6---2-2---3-3---0-0-----------------------|
G|-1-1---2-2---1-1---2-2-2---6-6---2-2---2-2---1-1-----------------------|
D|-2-2---2-2---2-2---2-2-2---6-6---4-4---0-0---2-2-----------------------|
A|-2-2---0-0---2-2---0-0-0---4-4---4-4---------2-2-----------------------|
E|-----------------------------------------------------------------------|


Chorus:
 AC#F#mE
e|------------------------------------------------------------------------|
B|-2-2---6-6---2-2---0----------------------------------------------------|
G|-2-2---6-6---2-2---1----------------------------------------------------|
D|-2-2---6-6---4-4---2----------------------------------------------------|
A|-0-0---4-4---4-4---2----------------------------------------------------|
E|------------------------------------------------------------------------|


Listen for the order in the song. There's a bridge near the end of the song but I couldn't figure that out.





















A C# D E F#m
variations - click chord images
Transpose chords:
Tuning:
Cool service:
View: Size:
A  A  A
Rating:
Layout:
  • Currently 2.7/5 Stars.
  • 1
  • 2
  • 3
  • 4
  • 5
 
Accuracy:
  • Currently 3/5 Stars.
  • 1
  • 2
  • 3
  • 4
  • 5
 
click stars to rate
Chordie recommends:
Learn how to play guitar at JamPlay.com
Songbook:
Login to add this song to your songbook
Support the artist
Preview/buy this song
MSN Music
Why this non-profit ad?

 
login to add comments/video/corrections