Fleetwood Mac/The Dixie Chicks - Landslide Tabbed and arranged by: Alejandro Manzano of Boyce Avenue
www.myspace.com/boyceavenue
video of me playing/singing it: http://www.youtube.com/watch?v=S-NJ8MTMFY8
Tuning: E A D G B E (standard)(capo 3rd fret)
x = mute ^ = hammer on or pull off / = slide
Intro: -------------------------------------------------| -----1-----------3-----------1-----------3-------| -------0---0-------0---0-------0---0-------0---0-| ---2-----2-----0-----0-----2-----2-----0-----0---| -3-----------2-----------0-----------2-----------| -------------------------------------------------|
-----------------------------------------------| -----1-----------3-----------1^0---------------| -------0---0-------0---0---------0---0-------0-| ---2-----2-----0-----0-----2-------2-------0---| -3-----------2-----------0---------------2-----| -----------------------------------------------|
Verse 1: -------------------------------------------------| -----1-----------3-----------1-----------3-------| -------0---0-------0---0-------0---0-------0---0-| ---2-----2-----0-----0-----2-----2-----0-----0---| (Play 3x) -3-----------2-----------0-----------2-----------| -------------------------------------------------|
-----------------------------------------------| -----1-----------3-----------1^0---------------| -------0---0-------0---0---------0---0-------0-| ---2-----2-----0-----0-----2-------2-------0---| -3-----------2-----------0---------------2-----| -----------------------------------------------|
(Play 5x) -----------------------------------------------------------------| -------1---------------3---------------1---------------3---------| ---0-------0---0---0-------0---0---0-------0---0---0-------0---0-| -----2-------2-------0-------0-------2-------2-------0-------0---| -3-------3-------2-------2-------0-------0-------2-------2-------| -----------------------------------------------------------------|
-----------------------------------------------------------------| -------1---------------3---------------1---------------1---------| ---0-------0---0---0-------0---0---0-------0---0---2-------2---0-| -----2-------2-------0-------0-------2-------2-------0-------0---| -3-------3-------2-------2-------0-------0-----------------------| -------------------------------------------------2-------2-------|
Chorus 1: -------------------------------------------------------0---------| -------3---------------3---------------0-------------------------| ---0-------0---0---2-------2---0---0-------0---0---0-------0---0-| -----0-------0-------0-------0-------2-------2-------2-------2---| -----------------------------------------2---------------2-------| -3-------3-------2-------2-------0---------------0---------------|
-----------------------------------------------------------------| -------1---------------3---------------1---------------1---------| ---0-------0---0---0-------0---0---0-------0---0---2-------2---0-| -----2-------2-------0-------0-------2-------2-------0-------0---| -3-------3-------2-------2-------0-------0-----------------------| -------------------------------------------------2-------2-------|
-------------------------------------------------------0---------| -------3---------------3---------------0-------------------------| ---0-------0---0---2-------2---0---0-------0---0---0-------0---0-| -----0-------0-------0-------0-------2-------2-------2-------2---| -----------------------------------------2---------------2-------| -3-------3-------2-------2-------0---------------0---------------|
-----------------------------------------------------------------| -------1---------------3---------------1-------------1-------3---| ---0-------0---0---0-------0---0---0-------0---0-------0-------0-| -----2-------2-------0-------0-------2-------2-----2-------0-----| -3-------3-------2-------2-------0-------0-------0-------2-------| -----------------------------------------------------------------|
Solo: ---------------------------------------------------------------| ------------0^3-----------3-3^5--3-------------------------3---|
--------0-2---------0-2/4----------2^4-4^2-0-------0^2-0-----0-| ----0-2-----------0----------------------------0^2-------0-----| -3--------------2-----------0------2---------3---------2-------| ---------------------------------------------------------------|
-2-3-2-3-3/5\3-2-3-2^0^2^0---------| ---------------------------3-1-0---| ---------------------------------2-| -------------------0---------------| -0---------------------------------| -----------------------------------|
Chorus 2: -------------------------------------------------------0---------| -------3---------------3---------------0-------------------------| ---0-------0---0---2-------2---0---0-------0---0---0-------0---0-| -----0-------0-------0-------0-------2-------2-------2-------2---| -----------------------------------------2---------------2-------| -3-------3-------2-------2-------0---------------0---------------|
---------------------------------------------| -------1---------------3---------------1-----| ---0-------0---0---0-------0---0---0-------0-| -----2-------2-------0-------0-------2-------| -3-------3-------2-------2-------0-------0---| ---------------------------------------------|
-------------------------| -------------------------| -4\2-2—0^2^0-------------| -----0-------4-2-0-------| -----0-------------3-0^2-| -----2---------------3---|
---------------------------------------------------0---------| ---3---------------3---------------0-------------------------| -------0---0---2-------2---0---0-------0---0---0-------0---0-| -0-------0-------0-------0-------2-------2-------2-------2---| -------------------------------------2---------------2-------| -----3-------2-------2-------0---------------0---------------|
-----------------------------------------------------------------| -------1---------------3---------------1---------------3---------| ---0-------0---0---0-------0---0---0-------0---0---0-------0---0-| -----2-------2-------0-------0-------2-------2-------0-------0---| -3-------3-------2-------2-------0-------0-------2-------2-------| -----------------------------------------------------------------|
-----------------------------------------------------------------| -------1---------------3---------------1-------------1-------3---| ---0-------0---0---0-------0---0---0-------0---0-------0-------0-| -----2-------2-------0-------0-------2-------2-----2-------0-----| -3-------3-------2-------2-------0-------0-------0-------2-------| -----------------------------------------------------------------|
Verse 2: -0-----------------------------------| -1---3---------1-------------3-------| -0---0-----------0---0---------0---0-| -2---0-----0^2-----2-------0-----0---| -3---2---0-------------0^2-----------| -------------------------------------|
-0-------------------------------------| -1---3---------1-----------1-------3---| -0---0-----------0---0-------0-------0-| -2---0-----0^2-----2-----2-------0-----| -3---2---0-------------0-------2-------| ---------------------------------------|
(Play 6x) -----------------------------------------------------------------| -------1---------------3---------------1---------------3---------| ---0-------0---0---0-------0---0---0-------0---0---0-------0---0-| -----2-------2-------0-------0-------2-------2-------0-------0---| -3-------3-------2-------2-------0-------0-------2-------2-------| -----------------------------------------------------------------|
-0-------0-| -1---3---0-| -0---0---5-| -2---0---2-| -3---2---0-| -----------|














variations - click chord images
Transpose chords:
Tuning:
Cool service:
View: Size:
A  A  A
Rating:
Layout:
  • Currently 2.4/5 Stars.
  • 1
  • 2
  • 3
  • 4
  • 5
 
Accuracy:
  • Currently 2.6/5 Stars.
  • 1
  • 2
  • 3
  • 4
  • 5
 
click stars to rate
Chordie recommends:
Check out JamPlay.com for online video guitar lessons
Songbook:
Login to add this song to your songbook
Support the artist
Preview/buy this song
MSN Music
Why this non-profit ad?

 
login to add comments/video/corrections

thebrooke (report video to admin):
Hope it's visible enough. Pretty easy song anyway. For the mp3 of this cover as well as of the original, come to my site: http://www.supernaturalthings.net
ERROR: If you can see this, then YouTube is down or you don't have Flash installed.
tjommi (report comment to admin):
That was beautiful singing.


Cheers from Norway
Big Ed (report comment to admin):
Your tooooo cool! That is great!
paddycake52 (report comment to admin):
you are really good,keep rockin.
baldchubbybono (report comment to admin):
awesome. Peace
vallotton (report comment to admin):
Beautiful. I enjoyed you very much. God Bless and keep you!
Herbie7 (report comment to admin):
You sound exactly like the singer:D great stuff.
DrKewel (report comment to admin):
Great job and beautiful voice.  DO MORE VIDS!
MazingerZ76 (report comment to admin):
love the voice very mellow:)