Silver Springs

Fleetwood Mac

 CFC
 You could be my silver spring
 CFC
 Blue-green colors flashing
 CFC
 I would be your only dream
 CFC
 Your shining over ocean crashing
 Am#5
 And do you say she's pretty
And do you say that she loved you
 FC
Baby I don't want to know
 CFC
 So I begin not to love you
 CFC
 Turn 'round, see me running
 CFC
 I say I loved you years ago
 CFCAm#5
 But tell myself you never loved me no
 Am#5
 And did you say that she's pretty
And do you say that she loved you
 FC
Baby I don't want to know
 CAm#5CAm#5C
            Oh    no
 Am#5
 And can you tell me it was worth it
 FC
Really I don't want to know
 AmBmC
 Time cast a spell on you
 FG
But you won't forget me
 AmBmC
know I could have loved you
 FG
But you would not let me
Solo over
C, F, C,
C, F, C,
Am#5,
Am#5, C
 AmBmC
 Time cast a spell on you
 FG
But you won't forget me
 AmBmC
know I could have loved you
 FG
But you would not let me
 AmBmC
I'll follow you down 'till the sound
 FG
Of my voice will haunt you (Was I just a fool?)
 AmBmC
You'll never get away from the sound
 FG
Of the woman who loves you (Was I just a fool?)
(Repeat last 4 lines, w/ "Give me just a chance" and "Never get away")
 CFC
      You can be my silver spring
 CFC
 My blue-green colors flashing
Weird chord:
 Am#5
      X o       o
-----------

| | | | O |
___________
| | | O | |
-----------

| | O | | |
-----------

Date: Tue, 11 Nov 1997 16:24:27 -0600
From: "Eric P. Martin"
Subject: Re: Silver Spring by Fleetwood Mac (fwd)
E -0--2--2--4--2--2-------0-------1--0--------------0-------2--2----
B -----------------------3-------3-----------3--1--3------3------------
G ------------------------------------------------------------------------
D ------------------------------------------------------------------------
A ------------------------------------------------------------------------
E ------------------------------------------------------------------------
E --4--2--2--------0--0-------0--0--------0--0-------0-------0------
B --------------3-----------3-----------3-----------3-------3----------
G ------------------------------------------------------------------------
D ------------------------------------------------------------------------
A ------------------------------------------------------------------------
E ------------------------------------------------------------------------
E --------------2--4--4--2--4--4--2--4--4--2--4--2--4--8--10-----
B --3--1--3--------------------------------------------------------------
G ------------------------------------------------------------------------
D ------------------------------------------------------------------------
A ------------------------------------------------------------------------
E ------------------------------------------------------------------------
E --10--8--10--10--8--10--12--10--8--4--2--------0--------0----
B ----------------------------------------------------3--------3---------
G ------------------------------------------------------------------------
D ------------------------------------------------------------------------
A ------------------------------------------------------------------------
E ------------------------------------------------------------------------				



Am Am#5 Bm C F G
variations - click chord images
Transpose chords:
Tuning:
Cool service:
View: Size:
A  A  A
Rating:
Layout:
  • Currently 3.3/5 Stars.
  • 1
  • 2
  • 3
  • 4
  • 5
 
Accuracy:
  • Currently 3.4/5 Stars.
  • 1
  • 2
  • 3
  • 4
  • 5
 
click stars to rate
Chordie recommends:
Get acoustic guitar lessons and electric guitar lessons at JamPlay.com
Songbook:
Login to add this song to your songbook
Support the artist
Preview/buy this song
MSN Music
Why this non-profit ad?

 
login to add comments/video/corrections