Chordie logo

A Kiss Is Not A Contract   Flight Of The Conchords



-------------------------------------------------------------------------------

			A KISS IS NOT A CONTRACT - Flight Of The Conchords

-------------------------------------------------------------------------------

Tabbed by: Ben Danger




Tuning: Standard


     G                       C                       D
e|---------------3-----------------------0-----------------------2-----------|
B|------3-----------3-----0-----1-----------1-----0-----3-----------3-----3--|
G|---------2-----------2-----------0-----------0-----------2-----------2-----|
D|------------0-----------------------2--------------0--------0--------------|
A|---------------------------3-----------------------------------------------|
E|---3-----------------------------------------------------------------------|



e|---------------2------------|
B|------3-----------3-----0---|     repeats x6
G|---------2-----------2------|
D|---0--------0---------------|
A|----------------------------|
E|----------------------------|


     Em
e|---------------7-----------------------7------------|
B|------8-----------8-----8-----8-----------8-----8---|
G|---------9-----------9-----------9-----------9------|
D|------------9-----------------------9---------------|
A|---7-----------------------7------------------------|
E|----------------------------------------------------|


     D*
e|-------------------10------------------------------10---------------|
B|-------10--------------10------10------10--------------10------10---|
G|-----------11--------------11--------------11--------------11-------|
D|---------------12------------------------------12-------------------|
A|--------------------------------------------------------------------|
E|---10------------------------------10-------------------------------|


     C*
e|----------------8---------------------------8------------|
B|------8------------8-----8-----8---------------8-----8---|
G|---------9------------9-----------9------9--------9------|
D|------------10-----------------------10------------------|
A|---------------------------------------------------------|
E|---8------------------------8----------------------------|


     B7
e|---------------7-----------------------7------------|
B|------7-----------7-----7-----7-----------7-----7---|
G|---------8-----------8-----------8-----------8------|
D|------------7-----------------------7---------------|
A|----------------------------------------------------|
E|---7-----------------------7------------------------|


     A
e|---------------5------------|
B|------5-----------5-----5---|     repeats x2, then the first part again x5
G|---------6-----------6------|
D|------------7---------------|
A|----------------------------|
E|---5------------------------|


Chords used: (* for barre instead of open)
G   C   D   Em   D*   C*   B7  A
3   0   2   7    10   8    7   5
3   1   3   8    10   8    7   5
0   0   2   9    11   9    8   6
0   2   0   9    12   10   7   7
2   3   x   7    12   10   9   7


Important: The song above is NOT stored on the Chordie server. The original song is hosted at www.guitaretab.com. Chordie works as a search engine and provides on-the-fly formatting. Chordie does not index songs against artists/composers will. To remove this song please click here.

This song is displayed as text-only. Transposing and tuning is only available for chordpro-songs.

Login - add to songbook

Rating click stars to rate

Layout
Accuracy

SHARE PAGE  



You need to log in to post comments