Guitar Tabs, Chords and Lyrics


Sex Bomb   Flipper



Artist: Flipper
Song: Sex Bomb
Album: Generic Flipper

This is the only riff played throught the entire song:

E----------------
B----------------
G----------------
D--7--2-4-2-4-2--
A--7--2-4-2-4-2--
E--5--0-2-0-2-0--

With the Bass playing

G----------------
D----------------
A----------------
E--5--0-2-0-2-0--

But that Might get a little fast for the guitar to switch from the E to
the F# so I suggest playing it in dropped D ( which I beleive is how it is
played )

E----------------
B----------------
G----------------
D--7--2-4-2-4-2--
A--7--2-4-2-4-2--
D--7--2-4-2-4-2--

And you could drop the Bass for the hell of it

G----------------
D----------------
A----------------


Important: The song above is NOT stored on the Chordie server. The original song is hosted at www.guitaretab.com. Chordie works as a search engine and provides on-the-fly formatting. Chordie does not index songs against artists/composers will. To remove this song please click here.

This song is displayed as text-only. Transposing and tuning is only available for chordpro-songs.

Login - add to songbook

Rating click stars to rate

Layout
Accuracy

SHARE PAGE  




You need to log in to post comments