If I Ever Leave This World Alive

Flogging Molly

 D
 If I ever leave this world alive,
 GD
 I'll thank ya' for things you did in my life.

If I ever leave this world alive,
 GD
 I'll come back down and sit beside your feet tonight.
 A
Wherever I am, you'll always be.
 BmG
More than just a memory.
 DAD
If I ever leave this world alive.

 D
 If I ever leave this world alive,
 GD
 I'll take on all the sadness, that I left behind.

If I ever leave this world alive,
 GD
 The madness that you feel will soon subside.
 A
So in a word, don't shed a tear.
 BmG
I'll be here when it all gets weird.
 DADA
If I ever leave this world alive.    

Bridge: Guitar 1 (Acoustic) strums chords above.
Guitar 2 (Electric) plays the tab.
 DGDGD
|------------------------------------------5-5/10----7-7/5-----3-2-|
|-------------------------------------7----------------------------|
|-0/7-------7---4-4-2-----0---------0/7----------------------------|
|---------9-----------------4--------------------------------------|
|------------------------------------------------------------------|
|------------------------------------------------------------------|


 A
|-2-3-2-0-----------------------------|
|-------------------------------------|
|-------------------------------------|
|-------------------------------------|
|-------------------------------------|
|-------------------------------------|

So when in doubt, just call my name

 BmG
|-0-2-0--------------------------|
|-------3------------------------|
|--------------------------------|
|--------------------------------|
|--------------------------------|
|--------------------------------|

Just before you go insane

 DA
If I ever leave this world
 BmG
Hey, I may never leave this world
 DADA
But if I ever leave this world alive...she says
 D
I'm okay, I'm alright
 BmG
Though you have gone from my life
 D
You said that it would,
 A
Now everything should,
 DA
Be alright 
 D
She says, I'm okay!

I'm alright!
 BmG
Though you have gone from my life.
 D
You said that it would,
 A
Now everything should,
 D
Be alright.
 AD
 Yeah, should be alright.

Outro: D


A Bm D G
variations - click chord images
Transpose chords:
Tuning: (GCEA)
Cool service:
View: Size:
A  A  A
Rating:
Layout:
  • Currently 3.2/5 Stars.
  • 1
  • 2
  • 3
  • 4
  • 5
 
Accuracy:
  • Currently 2.9/5 Stars.
  • 1
  • 2
  • 3
  • 4
  • 5
 
click stars to rate
Chordie recommends:
Learn how to play guitar at JamPlay.com
Songbook:
Login to add this song to your songbook
Support the artist
Preview/buy this song
MSN Music
Why this non-profit ad?

 
login to add comments/video/corrections