Smile A Little Smlie For Me

Flying Machine


 CGAmF
 v   v   v   v    v   v   v   v    v   v   v   v
----------------|----------0-----|--------------0-|
0-------0-------|----------------|----------2-----|
------2---------|----------------|----------------|
----------------|----------------|----------------|
----------------|----------------|----------------|
----------------|----------------|----------------|

Electric piano riff (arr. for guitar): (2x)
 C
 v   v   v   v
----------------|
--------1-1-----|
------0-------0-|
----------------|
3---------------|
----------------|

Verse 1:
 CFDmGCFDmGAmCFG
                                                                                                                       Chorus:
 CGAmFGCGAmFGAmDmDGCGAmF
                                                                                                                                                    / / / /  / / / /  / / / /  (Electric piano riff, 2x)
Verse 2:
 CFDmGCFDmGAmCFG
                                                                                                                       Chorus:
 CGAmFGCGAmFGAmDmDGCGAmF
                                                                                                                                                    / / / /  / / / /  / / / /  (Electric piano riff, 2x)
Coda:
Trumpet solo (arr. for guitar):
 CGAmF
 v   v   v   v    v   v   v   v    v   v   v   v
----------------|----------0-----|----------0---3-|
----------3---1-|--------3-----1-|--------3-------|
0---0---0-------|----------------|----------------|
------2---------|----------------|----------------|
----------------|----------------|----------------|
----------------|----------------|----------------|

 G
 v   v   v   v
--1---0---------|
------------3---|
----------------|
----------------|
----------------|
----------------|

 CGAmFC
 / / / /  / / / /  / / / /  / / / / ||
(held)













Am C D Dm F G
variations - click chord images
Transpose chords:
Tuning:
Cool service:
View: Size:
A  A  A
Rating:
Layout:
  • Currently 3.2/5 Stars.
  • 1
  • 2
  • 3
  • 4
  • 5
 
Accuracy:
  • Currently 2.7/5 Stars.
  • 1
  • 2
  • 3
  • 4
  • 5
 
click stars to rate
Chordie recommends:
Check out JamPlay.com for online video guitar lessons
Songbook:
Login to add this song to your songbook
Support the artist
Preview/buy this song
MSN Music
Why this non-profit ad?

 
login to add comments/video/corrections