Chordie logo

Ocean Waves   Flyleaf



only tabbed for one of the guitars...but it sounds pretty close to me

Ocean Waves - Flyleaf

Intro: x4
|-7----------7------10--9----|
|-10---------10-----13--12---|
|-9----------9------12--11---|
|-7--x6--00--7--x4--10--9----|
|-7------00--7------10--9----|
|-7------00--7------10--9----|

Verse part 1: x4               Verse part 2: x1          
|-7----------7------10--9--|  |---7-----10--9--|   |---7----7----7-----|
|-10---------10-----13--12-|  |---10----13--12-|   |---10---10---10----|
|-9----------9------12--11-|  |---9-----12--11-|   |---9----9----9-----|
|-7--x6--00--7--x4--10--9--|  |-0-7-x4--10--9--|x3 |-0-7--0-7--0-7--/0-|
|-7------00--7------10--9--|  |-0-7-----10--9--|   |-0-7--0-7--0-7--/0-|
|-7------00--7------10--9--|  |-0-7-----10--9--|   |-0-7--0-7--0-7--/0-|
 ......muted.......
V1: (So many wasted days, come and go like ocean waves...)
V2: (Respect her ignorance, just in case she takes offense...)


Chorus: x2
|-2--5--0-------------------------------|
|-5--8--3-------------------------------|
|-4--7--2---5-5-3----5-5-5-4---7-7-7-7--|
|-2--5--0---3-3-2-x--3-3-3-2-x-5-5-5-5--|
|-2--5--0---3-3-2-x--3-3-3-2-x-5-5-5-5--|
|-2--5--0---3-3-2-x--3-3-3-2-x-5-5-5-5--|
(How could I have been be so polite to simply let them die?...)

Intro : x4
Verse part 1 : x4
Verse part 2 : x1
Chorus : x2

Bridge : x1
|-2-2-2-2-2---|   |-2-2-2-2-2---|
|-5-5-5-5-5---|   |-5-5-5-5-5---|
|-4-4-4-4-4---|   |-4-4-4-4-4---|
|-2-2-2-2-2-x-|x3 |-2-2-2-2-2~~-|
|-2-2-2-2-2-x-|   |-2-2-2-2-2~~-|
|-2-2-2-2-2-x-|   |-2-2-2-2-2~~-|
(You're not guaranteed tomorrow, you're not guaranteed tomorrow...)


Chorus : X2


Outro : play chorus x2


Important: The song above is NOT stored on the Chordie server. The original song is hosted at www.guitaretab.com. Chordie works as a search engine and provides on-the-fly formatting. Chordie does not index songs against artists/composers will. To remove this song please click here.

This song is displayed as text-only. Transposing and tuning is only available for chordpro-songs.

Login - add to songbook

Rating click stars to rate

Layout
Accuracy

SHARE PAGE  



You need to log in to post comments