Guitar Tabs, Chords and Lyrics


Tonight  Fm Static

Tuning:Standard with Capo on the 1st fret

Intro-D--G--D--G
D G D G
|-0~---2---0----------0-2-0~-|-0~---2---0-------/3-2-0~--------|
|--------3---3---3----3------|-------3----3----3---------------|
|--------------2---2---------|--------------2--2---------------|
|-0~-0--------(0)-(0)--------|-0~-0----------0-----------------|
|----------------------------|---------------------------------|
|---------------------3~-----|-------------------3~------------|
Verse-
D G D G
|--------0-------------------|--------0------------------------|
|-3~---3---3---------------3-|-3~---3---3-------------3~-------|
|----2-------2---2--------2--|----2-------2---2-----2----------|
|-0~-----------0--------0----|-0~-----------0-----0------------|
|----------------------------|---------------------------------|
|---------------------3------|------------------3--------------|

Em G Em A
|-0~-2-3-2-0---0~-2---0~-----|-0~-2-3-2-0---/3-2-0~------------|
|-3~---------3---------------|-3~---------3--------------------|
|----------------------------|---------------------------------|
|----------------------------|---------------------------------|
|----------------------------|---------------0-----------------|
|-0~-----------3~------------|-0~------------------------------|


D G
|-0~---2---0----------0-2-0~-|
|--------3---3---3----3------|
|--------------2---2---------|
|-0~-0--------(0)-(0)--------|
|----------------------------|
|---------------------3~-----|

Verse2
D G D G
|-0~--2--3---------0-2-0~----|-0~--2--3---------0-2-0~---------|
|----------3---3-------------|----------3---3------------------|
|------------2---------------|------------2--------------------|
|-0~-------------------------|-0~------------------------------|
|----------------------------|---------------------------------|
|------------------3~--------|------------------3~-------------|
Em A
|-0~-2--3-2-0----3-2--0------|
|--------------3-------------|
|----------------------------|
|----------------------------|
|----------------0-----------|
|-0~-------------------------|


Chorus-
D Bm G A D G Bm A
|-------------------------------|------------------------------|
|-------------------------------|------------------------------|
|-7-7-777--4-44-44--------------|-7-7-777---------4-4-444------|
|-7-7-777--4-44-44-5-5-555-7-77-|-7-7-777-5-55-55-4-4-444-7-77-|2x
|-5-5-555--2-22-22-5-5-555-7-77-|-5-5-555-5-55-55-2-2-222-7-77-|
|------------------3-3-333-5-55-|---------3-33-33---------5-55-|


Verse3-

D G D G
|-0~---2---0----------0-2-0~-|-0~---2---0-------/3-2-0~--------|
|--------3---3---3----3------|-------3----3----3---------------|
|--------------2---2---------|--------------2--2---------------|
|-0~-0--------(0)-(0)--------|-0~-0----------0-----------------|3x
|----------------------------|---------------------------------|
|---------------------3~-----|-------------------3~------------|

Em A
|-0~---2---0----------0-2-0~-|
|--------3---3---3----3------|
|--------------2---2---------|
|----------------------------|
|---------------------0~-----|
|-0~-------------------------|

Interlude-
D G D G
|--------0-------------------|--------0------------------------|
|-3~---3---3---------------3-|-3~---3---3-------------3~-------|
|----2-------2---2--------2--|----2-------2---2-----2----------|
|-0~--------------------0----|-0~-----------------0------------|
|----------------------------|---------------------------------|
|---------------------3------|------------------3--------------|

Em A
|-0~-2--0-------0~-2--0------|
|---------3-3----------------|
|-----------2-2--------------|
|----------------------------|
|---------------0~-----------|
|-0~-------------------------|

Rereat Chorus-

Outro-
D G
|-0~-----0--------------------|
|------3---3---3---------3~~~-|
|----2------2--2-------2------|
|-0~-----------------0--------|
|-----------------------------|
|------------------3----------|

for BEGGINERS (just strumm it)

I remember the t[D]imes we spent together
[G]On those drives
We had a mi[Bm]llion questions
All ab[A]out our lives
And when we g[D]ot to New York
Everyth[G]ing felt right
I wi[Bm]sh you were here with m[A]e
(repeat Intro)
Tonight
(same chords on 1st stanza)
I remember the days we spent together
Were not enough
And I used to feel like dreamin'
Except we always woke up
Never thought not having you here now
Would hurt so much

Chorus:
Toni[D]ght I've fa[G]llen and I c[Bm]an't get [A]up
I need your l[D]oving h[G]ands to come and p[Bm]ick me [A]up
And every n[D]ight I m[G]iss you, I can j[Bm]ust look [A]up
And know the s[Bm]tars are
H[A]olding you, h[G]olding you, h[A]olding you
 D--G--D--G

Tonight
(same chords on 1st stanza)

I remember the time you told me
About when you were eight
And all those things you said that night
That just couldn't wait

I remember the car you were last seen in
And the games we would play
All the times we spilled our coffees
And stayed out way too late

I remember the time you sat and told me
About your Jesus
And how not to look back
Even if no one believes us
When it hurts so bad
Sometimes not having you here
I sing

(repeat chorus)
(Adlib:D-G-Bm-A)
I sing
Tonight I've fallen and I can't get up
I need your loving hands to come and pick me up
And every night I miss you I can't just look up
And know the stars are
Holding you, holding you, holding you
Tonight

Important: The song above is NOT stored on the Chordie server. The original song is hosted at www.guitaretab.com. Chordie works as a search engine and provides on-the-fly formatting. Chordie does not index songs against artists/composers will. To remove this song please click here.

Text color:
Chord color:
Chord grids: 
Font size:    
Page size: 

A Bm D G
variations - click chord images

Login - add to songbook

Transpose chords

Tuning

Rating click stars to rate

Layout
Accuracy

SHARE PAGE  




You need to log in to post comments