Chordie logo

Astronauts N All   Foals



This is my second tab.

*Keyboard intro*

Then...

E|-------17-15----------17-15-17/19-------17-15----------17-15-17/19----|
B|----15-------15----15----------------15-------17----15----------------|
G|----------------------------------------------------------------------|
D|----------------------------------------------------------------------|
A|----------------------------------------------------------------------|
E|----------------------------------------------------------------------|

This is repeated with some variations - for example:

E|-------17-15----------17-15----------17-15----------17-15-17/19----|
B|----15-------15----15-------17----15-------15----15----------------|
G|-------------------------------------------------------------------|
D|-------------------------------------------------------------------|
A|-------------------------------------------------------------------|
E|-------------------------------------------------------------------|

...Until 00:37 when this is played before the verse comes in:

E|----20-19-17-15----|
B|-------------------|
G|-------------------|
D|-------------------|
A|-------------------|
E|-------------------|

^ This is then incorporated into the guitar you just played for the intro for the verse, 
sounds like this:

E|-------17-15----------17-15----------17-15--20-19-17-15----|
B|----15-------15----15-------17----15-----------------------|
G|-----------------------------------------------------------|
D|-----------------------------------------------------------|
A|-----------------------------------------------------------|
E|-----------------------------------------------------------|

The chorus is this I believe:

E|------------------------------------------|
B|------------------------------------------|
G|------------------------------------------|
D|----12-12-1212----12/14--14/15--17--19----|
A|------------------------------------------|
E|----10-10-1010----10/12--12/13--15--17----|

E|------------------------------------------|
B|------------------------------------------|
G|------------------------------------------|
D|----12-12-1212----12/14-1414--12--1010----|
A|------------------------------------------|
E|----10-10-1010----10/12-1212--10---8-8----|

Breakdown at 1:29 is:

E|-----------------------------|
B|----15-13----15-13--13-13----|
G|----x--------x---------------|
D|----x--------x---------------|
A|----x--------x---------------|
E|-----------------------------|

Then:

E|----------------------------------|
B|----------------------------------|
G|----12h14-----12--12h14-----12----|
D|-----------14------------14-------|
A|----------------------------------|
E|----------------------------------|

Then two more guitar parts are added, the first at 1:49, which is:

E|-------------|
B|----13-------|
G|-------12----|
D|-------------|
A|-------------|
E|-------------|


Then at 2:01, this:

E|----17--15--17--15--17--15--20--19-17----|
B|-----------------------------------------|
G|-----------------------------------------|
D|-----------------------------------------|
A|-----------------------------------------|
E|-----------------------------------------|

^ This is repeated until the outro, in which the two variations of the guitar played in 
intro are mixed together, for example:

E|-------17-15----------17-15----------17-15--20-19-17-15/17----|
B|----15-------15----15-------17----15--------------------------|
G|--------------------------------------------------------------|
D|--------------------------------------------------------------|
A|--------------------------------------------------------------|


Important: The song above is NOT stored on the Chordie server. The original song is hosted at www.guitaretab.com. Chordie works as a search engine and provides on-the-fly formatting. Chordie does not index songs against artists/composers will. To remove this song please click here.

This song is displayed as text-only. Transposing and tuning is only available for chordpro-songs.

Login - add to songbook

Rating click stars to rate

Layout
Accuracy

SHARE PAGE  



You need to log in to post comments