Guitar Tabs, Chords and Lyrics


Rockin All Over The World  John Fogerty

-------------------------------------------------------------------------------



-------------------------------------------------------------------------------

e|----10---10---10---------------------------------------------10~-----------|
B|----10---10---10----------------------------7----------------10~-----------|
G|---9b(11)--(11)rb9--7------7-7-7-7-7-7-7--7---9-7--------------------------|
D|----*----------#------9-7--7-9-7-7-9-7-7----------9-7----------------------|
A|-----hold-bend-(*)------------------------------------9--------------------|
E|----and-release-(#)-------------------------------------10~----------------|
e|----10------10--------------10~---10\--------------------------------------|
B|----10------10--------------10~---10\--------------------------------------|
G|---9b(11)--9b(11)--9-7---7-------------------------------------------------|
D|-----------------------9---------------------------------------------------|
A|---------------------------------------------------------------------------|
E|---------------------------------------------------------------------------|


Verse 1: (All chords throughout the song are played in the classic boogie
strum pattern)

[D]                                                                                      
Well, a-here-ee-yup, a-here-ee-yup, a-here we go,

[G]Water born, cos we're hittin' the road,
Here we [D]go-oh! [A]Rockin' all over [D]the world!

Verse 2:

[D]Well, a-geedeeup, a-geedeeup, a-get away,
[G]We're goin' crazy, and we're goin' today, here we [D]go-oh!
[A]Rockin' all over [D]the world!

Chorus:

[D]And I like it, I like it, I like it, I like it,
[G]I la-la-like it, la-la-like, [D]here we go-oh! [a]Rockin' all over [D]the world!

Guitar Solo: (Guitar 1 plays the solo tabbed below while guitar 2 plays same
chord sequence as with a verse twice)

e|--------10------10-----------------------3---3---3-------------------------|
B|--------10------10-----------------------3---3---3-------------------------|
G|---9/11----9/11-----9h10-9--------------2b(4)--(4)rb2--2-------------------|
D|---------------------------11-9-11-11\---*-------#-------2p0---------------|
A|----------------------------------------hold-bend-(*)----------------------|
E|---------------------------------------and-release-(#)---------------------|
e|----------------2-2---------------5---5---5--------------10~--10~--10\-----|
B|----------------3-3--5b6b5-3~-3\--5---5---5--------------10~--10~--10\-----|
G|---7-9-7-7-9-7--2-2--------------4b(6)--(6)rb4--2--------------------------|
D|---5-5-5-5-5-5--0-0---------------*-------#-------4-2-0--------------------|
A|---------------------------------hold-bend-(*)-----------------------------|
E|--------------------------------and-release-(#)----------------------------|


Piano Solo: (Guitars play the verse chord sequence once)

Verse 3:

[D]Well, I'm gonna tell your mama what your daddy do,
[G]He come out of the night with your dancin' shoes,
[D]Here we go-oh! [a]Rockin' all over [D]the world!

Chorus:

[D]And I like it, I like it, I like it, I like it,
[G]I la-la-like it, la-la-like, [D]here we go-oh! [a]Rockin' all over [D]the world!

Chorus:

[D]And I like it, I like it, I like it, I like it,
[G]I la-la-like it, la-la-like, [D]here we go-oh! [a]Rockin' all over [D]the world!

Chorus:

[D]And I like it, I like it, I like it, I like it,
[G]I la-la-like it, la-la-like, [D]here we go-oh! [a]Rockin' all over [D]the world!

Chorus:

[D]And I like it, I like it, I like it, I like it,
[G]I la-la-like it, la-la-like, [D]here we go-oh! [a]Rockin' all over [D]the world!

Chorus:

[D]And I like it, I like it, I like it, I like it,
[G]I la-la-like it, la-la-like, [D]here we go-oh! [a]Rockin' all over [D]the world!

| / slide up
| \ slide down
| h hammer-on
| p pull-off
| ~ vibrato
| + harmonic
| x Mute note
===============================================================================

Important: The song above is NOT stored on the Chordie server. The original song is hosted at www.guitaretab.com. Chordie works as a search engine and provides on-the-fly formatting. Chordie does not index songs against artists'/composers' will. To remove this song please click here.

Text color:
Chord color:
Chord grids: 
Font size:    
Page size: 

A D G
variations - click chord images

Login - add to songbook

Transpose chords

Tuning

Rating click stars to rate

Layout
Accuracy

SHARE PAGE  




You need to log in to post comments