Chordie logo

TIMES LIKE THESE     Foo Fighters


style="COLOR: #000000; FONT-SIZE: 11px;">Band: Foo Fighters
Song: Times Like These

Tabbed by: Tim


Intro Clean x4/ Bridge Slightly Distorted

e|-5-5-5-5-5—--5-5-5-5-5---5-5-5
b|-0-0-0-0-0—--0-0-0-0-0---0-0-0
g|-5-5-5-5-5---5-5-5-5-5---5-5-5
d|-0-0-0-0-0---0-0-0-0-0---0-0-0
a|-5-5-5-0-5---5-0-5-0-5---0-5-5
e|------------------------------

After Intro

Guitar 1  7/8 Timing/
 On the last bars of this play 8/8
                                             Last Time End
 e|----------------------------------------|-------------------
 b|----------------------------------------|-------------------
 g|-----------12-11-----------12-11--------|-------------------
 d|0—-12—10-0-------0—12-10-0-------12-10--|----12-10-12------
 a|----------------------------------------|-------------------
 e|----------------------------------------|-------------------


Guitar 2 Chords for that bit
 e|------------------------------------------------------------
 b|------------------------------------------------------------
 g|77777777777777|-55555555555555|-00000000000000----------------
 d|00000000000000|-00000000000000|-00000000000000----------------
 a|55555555555555|-33333333333333|-22222222222222----------------
 e|55555555555555|-33333333333333|-22222222222222----------------



Chords

D    =xx0232
Am   =x02213
Cadd9=x32013
Em   =022000
Daddg=xx0233

D              Am
I I’m a one way motorway
                   Cadd9          Em                  Intro Chord dist.
I’m the world that drives away and follows you back home
D              Am
I I’m a street light shining
                  Cadd9           Em                Intro Chord dist.
I’m a white light blinding light, burning off and on

Uh aar..

Guitar 1 for verse

 e|-----2------------2---|----3-------------3-----|-------3|-----0-----
 b|------------3-------3-|-----------1----------2-|-------1|-----0-----
 g|---------2-----2------|-------2------2---------|-------0|-----0-----
 d|0---------------------|------------------------|2-------|-----2-----
 a|----------------------|0-----------------------|3-------|2----------
 e|----------------------|------------------------|--------|0----------




Chorus
Cadd9                     Em              Daddg
It’s times like these you learn to live again
Cadd9                     Em              Daddg
It’s times like these you give and give again
Cadd9                     Em              Daddg
It’s times like these you learn to live again
Cadd9                     Em        Intro Chord dist.
It’s times like these time and time again


Guitar 1 For Chorus
 E|--------------------------------------------------------
 B| -------------------------------------------------------
 G|--------------------------------------------------------
 D|5-5-5-5-5-5-5-5----2------5------2-----4-4-4--0-5-------
 A|--------------------------------------------------------
 E|--------------------------------------------------------





Verse 2

I I’m a new day rising
I’m a brand new skyin, that stars upon the night

I I’m a new dividant
To stay or run away, leave it all behind

Chorus




Solo 8/8.

This bit is played with extra distortion with the intro chord being played by guitar 2. Play this four times.
 E|-------------------------------------------------
 B|-------------------------------------------------
 G|-----------12-11------------12-11----------------
 D|0—-12-10-0 ------0—-12-10-0-------12-10-12-------
 A|-------------------------------------------------
 E|-------------------------------------------------



Last Chorus Clean

 E|----0-0---|----0-0---|---3-3-----
 B|----1-1---|----0-0---|---3-3-----
 G|----0-0---|----0-0---|---2-2-----
 D|2---------|----0-0---|0----------
 A|3--------3|2---------|-----------
 E|----------|0---------|-----------



Intro  x4
Solo x9 Chords x3
Bridge x2
Verse
Bridge x1
Verse
Bridge x2
Chorus
Bridge x2
Verse
Bridge x1
Verse
Bridge x2
Chorus
Solo X12 chords x4 and then
Chorus x3 including last one clean



Important: The song above is NOT stored on the Chordie server. The original song is hosted at www.guitaretab.com. Chordie works as a search engine and provides on-the-fly formatting. Chordie does not index songs against artists/composers will. To remove this song please click here.

This song is displayed as text-only. Transposing and tuning is only available for chordpro-songs.

Rating click stars to rate

Layout
Accuracy

SHARE PAGE  

You need to log in to post comments

ray man (report)

http://www.guitaretab.com/f/foo-fighters/25265.html

dont understand riff

82.40.124.169