Big Me

Foo Fighters

 CAmGF
e||--3----3----------------0----0---------------3----3--------------1----1--||
B||--1----1----------------1----1---------------1----1--------------1----1--||
G||--0----0----------------2----2---------------0----0--------------2----2--||
D||--2----2----------------2----2---------------0----0--------------3----3--||
A||--3----3----------------0----0---------------2----2--------------3----3--||
E||---------------------------------------------3----3--------------1----1--||

Chorus
 EF
e||--0----0----0----0----0----0----0----0-----1----1----1----1----1----1----1----1--|
B||--0----0----0----0----0----0----0----0-----1----1----1----1----1----1----1----1--|
G||--1----1----1----1----1----1----1----1-----2----2----2----2----2----2----2----2--|
D||--2----2----2----2----2----2----2----2-----3----3----3----3----3----3----3----3--|
A||--2----2----2----2----2----2----2----2-----3----3----3----3----3----3----3----3--|
E||--0----0----0----0----0----0----0----0-----1----1----1----1----1----1----1----1--|

 CC7
e|--3----3----3----3------0----0----0----0--||
B|--1----1----1----1------1----1----1----1--||
G|--0----0----0----0------3----3----3----3--||
D|--2----2----2----2------2----2----2----2--||
A|--3----3----3----3------3----3----3----3--||
E|------------------------------------------||


 EF
e||--0----0----0----0----0----0----0----0-----1----1----1----1----1----1----1----1--|
B||--0----0----0----0----0----0----0----0-----1----1----1----1----1----1----1----1--|
G||--1----1----1----1----1----1----1----1-----2----2----2----2----2----2----2----2--|
D||--2----2----2----2----2----2----2----2-----3----3----3----3----3----3----3----3--|
A||--2----2----2----2----2----2----2----2-----3----3----3----3----3----3----3----3--|
E||--0----0----0----0----0----0----0----0-----1----1----1----1----1----1----1----1--|

 CG
e|--3----3----3----3-----3----3----3----3----3----3----3----3--||
B|--1----1----1----1-----0----0----0----0----0----0----0----0--||
G|--0----0----0----0-----0----0----0----0----0----0----0----0--||
D|--2----2----2----2-----0----0----0----0----0----0----0----0--||
A|--3----3----3----3-----2----2----2----2----2----2----2----2--||
E|-----------------------3----3----3----3----3----3----3----3--||

Bridge
 CGFCG
e||--3-----3-------3-------1------3-----3------3----3----3----3----3----3----3----3--||
B||--1-----1-------1-------1------1-----1------1----1----1----1----1----1----1----1--||
G||--0-----0-------0-------2------0-----0------0----0----0----0----0----0----0----0--||
D||--2-----2-------0-------3------2-----2------0----0----0----0----0----0----0----0--||
A||--3-----3-------2-------3------3-----3------2----2----2----2----2----2----2----2--||
E||----------------3-------1-------------------3----3----3----3----3----3----3----3--||

Outro
 CGFC
e||--3----3--------3-------1-|-3--||
B||--1----1--------1-------1-|-1--||
G||--0----0--------0-------2-|-0--||
D||--2----2--------0-------3-|-2--||
A||--3----3--------2-------3-|-3--||
E||----------------3-------1-|----||





















Am C C7 E F G
variations - click chord images
Transpose chords:
Tuning:
Cool service:
View: Size:
A  A  A
Rating:
Layout:
  • Currently 2.2/5 Stars.
  • 1
  • 2
  • 3
  • 4
  • 5
 
Accuracy:
  • Currently 2.8/5 Stars.
  • 1
  • 2
  • 3
  • 4
  • 5
 
click stars to rate
Chordie recommends:
Learn to play this song & others via video guitar lessons at JamPlay.com
Songbook:
Login to add this song to your songbook
Support the artist
Preview/buy this song
MSN Music
Why this non-profit ad?

 
login to add comments/video/corrections