"yes"; ?> by Unknown - guitar chords, guitar tabs and lyrics - chordie
 C9B7E
Gtr I
|---------|----------------0-|-------0-(0)-------|
|---------|---3--0-(0)-----0-|-------0-(0)-------|
|---------|---3--2-(2)-------|-------------1---0-|
|---------|---x--1-(1)-1-----|---2---------------|
|---------|-3-3--2-(2)---2---|---------------2---|
|---------|------------------|-0---0-------------|


C9 B7 E N.C. C9 B7 E
|----------------0-|----------------------|----------------0-|------0-(0)-----|
|---3--0-(0)-----0-|----------------------|---3--0-(0)-----0-|------0-(0)---0-|
|---3--2-(2)-------|----------------2-3-4-|---3--2-(2)-------|--------------0-|
|---x--1-(1)-1-----|----------0-1-2-------|---x--1-(1)-1-----|----2-----------|
|-3-3--2-(2)---2---|----------------------|-3-3--2-(2)---2---|----------------|
|------------------|-0--3h4-0-------------|------------------|-0--------------|


 C9B7E
|----------------0-|------------0-|-(0)--------|-(0)--x--0--0-0--||
|---3--0-(0)-----0-|--------------|------------|------------0-0--||
|---3--2-(2)-------|--------------|------------|--------------0--||
|---x--1-(1)-1-----|--------------|------------|-----------------||
|-3-3--2-(2)---2---|--------------|------------|-----------------||
|------------------|-0------(0)---|------------|-----------------||


Verse 1
 C9B7EC9B7E
|----------------0-|------0-(0)------|----------------0-|
|---3--0-(0)-----0-|------0-(0)------|---3--0-(0)-----0-|
|---3--2-(2)-2-----|------1-(1)----0-|---3--2-(2)-2-2---|
|---x--1-(1)-1-----|----2----------x-|---x--1-(1)-1-1---|
|-3-3--2-(2)---2---|---------------3-|-3-3--2-(2)-------|
|------------------|-0-----------0---|------------------|


 C9B7E
|------0-(0)-----|--------------0-|------0--------|
|------0-(0)-----|---3--0-------0-|------0----0-0-|
|-1-----------0--|---3--2-2-------|-----------1-0-|
|-2--2--------x--|----------1-----|--------2--2---|
|-2--2--------3--|-3----------2---|-2---------2---|
|-0--------------|----------------|-0--0----------|


 C9B7E
|----------------0-|----------|------------|------0--0--0----||
|---3--0-(0)-----0-|----------|------------|------0--0--0-0--||
|---3--2-(2)-2-----|----------|------------|------1--1----0--||
|---x--1-(1)-------|----------|------------|-----------------||
|-3-3--2-(2)---2---|-2--------|-(2)--------|-(2)-------------||
|------------------|-0--------|-(0)--------|-(0)-------------||


Verse 2 & 3
 C9B7EC9B7E
    Gtr I                                                
||-----------------0-|------0-(0)------|----------------0-|
||o---3--0-(0)-----0-|------0-(0)------|---3--0-(0)-----0-|
||----3--2-(2)-2-----|------1-(1)----0-|---3--2-(2)-2-2---|
||----x--1-(1)-1-----|----2----------x-|---x--1-(1)-1-1---|
||o-3-3--2-(2)---2---|---------------3-|-3-3--2-(2)-------|
||-------------------|-0-----------0---|------------------|


 C9B7E
|------0-(0)-----|--------------0-|------0--------|
|------0-(0)-----|---3--0-------0-|------0----0-0-|
|-1-----------0--|---3--2-2-------|-----------1-0-|
|-2--2--------x--|----------1-----|--------2--2---|
|-2--2--------3--|-3----------2---|-2---------2---|
|-0--------------|----------------|-0--0----------|


 C9B7EC9B7E
|----------------0-|------0-(0)------|----------------0-|
|---3--0-(0)-----0-|------0-(0)------|---3--0-(0)-----0-|
|---3--2-(2)-2-----|------1-(1)----0-|---3--2-(2)-2-2---|
|---x--1-(1)-1-----|----2----------x-|---x--1-(1)-1-1---|
|-3-3--2-(2)---2---|---------------3-|-3-3--2-(2)-------|
|------------------|-0-----------0---|------------------|


 C9B7E
|------0-(0)-----|--------------0-|------0--------|
|------0-(0)-----|---3--0-------0-|------0----0-0-|
|-1-----------0--|---3--2-2-------|-----------1-0-|
|-2--2--------x--|----------1-----|--------2--2---|
|-2--2--------3--|-3----------2---|-2---------2---|
|-0--------------|----------------|-0--0----------|


Chorus
 C9B7EG
  Gtr I                               
|------------------|--------------||-----------------|
|---3--0-(0)-------|--------------||-----------------|
|---3--2-(2)-2---1-|--------------||-----------------|
|---x--1-(1)-----2-|--------------||-----------------|
|-3-3--2-(2)---2---|-2------------||-----------------|
|------------------|-0------------||-----------------|

|
| Gtrs II, III
|------------------|--------------||-----------------|
|------------------|--------------||-----------------|
|------------------|--------------||-4---4---4---4---|
|------------------|--------------||-5---5---5---5---|
|------------------|--------------||-5---5---5---5---|
|------------------|--------15\-0-||-3-0-3-0-3-0-3-0-|


 B5GB5
  Gtrs II, III                                  
|--------------------------|-----------------|--------------------------|
|--------------------------|-----------------|--------------------------|
|--------------------------|-4---4---4---4---|--------------------------|
|-/9-9-9-9-9-9-9-9-9-9-9---|-5---5---5---5---|-/9-9-9-9-9-9-9-9-9-9-9---|
|-/9-9-9-9-9-9-9-9-9-9-9---|-5---5---5---5---|-/9-9-9-9-9-9-9-9-9-9-9---|
|-/7-7-7-7-7-7-7-7-7-7-7-0-|-3-0-3-0-3-0-3-0-|-/7-7-7-7-7-7-7-7-7-7-7-0-|


 GB5A5A5C5
                                               Gtr III      
| | | | | | | | | | | |
Gtr II
|-----------------|--------------------------|------------------------------|
|-----------------|--------------------------|------------------------------|
|-4---4---4---4---|--------------------------|-6-6-6-6-6-6--9--9--9--9--9-x-|
|-5---5---5---5---|-/9-9-9-9-9-9-9-9-9-9-7-7-|-7-7-7-7-7-7--8--8--8--8--8-x-|
|-5---5---5---5---|-/9-9-9-9-9-9-9-9-9-9-7-7-|-7-7-7-7-7-7-10-10-10-10-10-x-|
|-3-0-3-0-3-0-3-0-|-/7-7-7-7-7-7-7-7-7-7-5-5-|-5-5-5-5-5-5--8--8--8--8--8-x-|


To Coda
 A5C5A5C5
  | | | | | |  |  |  |  |  | |   | | | | | |  |  |  |  |  | |
|------------------------------|------------------------------|
|------------------------------|------------------------------|
|-6-6-6-6-6-6--9--9--9--9--9-x-|-6-6-6-6-6-6--9--9--9--9--9-x-|
|-7-7-7-7-7-7--8--8--8--8--8-x-|-7-7-7-7-7-7--8--8--8--8--8-x-|
|-7-7-7-7-7-7-10-10-10-10-10-x-|-7-7-7-7-7-7-10-10-10-10-10-x-|
|-5-5-5-5-5-5--8--8--8--8--8-x-|-5-5-5-5-5-5--8--8--8--8--8-x-|


 E5
    |  |  |  |  |  |  |  |  |  |
|-----------------------------------||
|-----------------------------------||
|-/13-13-13-13-13-13-13-13-13-13\---||
|-/12-12-12-12-12-12-12-12-12-12\---||
|-/14-14-14-14-14-14-14-14-14-14\---||
|-/12-12-12-12-12-12-12-12-12-12\---||


Interlude
1.
 C9B7E
  Gtr I           
|----------------0-|-------0-(0)-------|
|---3--0-(0)-----0-|-------0-(0)-------|
|---3--2-(2)-------|-------------1---0-|
|---x--1-(1)-1-----|---2---------------|
|-3-3--2-(2)---2---|---------------2---|
|------------------|-0---0-------------|


C9 B7 E N.C.
|----------------0-|----------------------|
|---3--0-(0)-----0-|----------------------|
|---3--2-(2)-------|----------------2-3-4-|
|---x--1-(1)-1-----|----------0-1-2-------|
|-3-3--2-(2)---2---|----------------------|
|------------------|-0--3h4-0-------------|


 C9B7EC9B7E
|----------------0-|-------0-(0)-------|----------------0-|------0-(0)-------||
|---3--0-(0)-----0-|-------0-(0)-------|---3--0-(0)-----0-|------0-(0)---0--o||
|---3--2-(2)-------|-------------1---0-|---3--2-(2)-------|--------------0---||
|---x--1-(1)-1-----|---2---------------|---x--1-(1)-1-----|----2-------------||
|-3-3--2-(2)---2---|---------------2---|-3-3--2-(2)---2---|-----------------o||
|------------------|-0---0-------------|------------------|-0----------------||


2.
C9 B7 B7sEs4 C9 B7 B7sEs4 N.C.
Gtrs II, III
|------2-(2)-0--0-|-0----0-(0)-----|------2-(2)-0--0-|----------------------|
|---3--0-(0)-0--0-|-0----0-(0)-----|---3--0-(0)-0--0-|----------------------|
|---3--2-(2)-2----|-1--------------|---3--2-(2)-2----|-1--------------2-3-4-|
|---x--1-(1)------|-2-----------2--|---x--1-(1)------|-2--------0-1-2-------|
|-3-3--2-(2)------|-2-----------2--|-3-3--2-(2)------|-2--------------------|
|-----------------|-0--0--------0--|-----------------|-0--3h4-0-------------|


Verse 4
 C9B7B7sEs4
                                      6x
||-------2-(2)-0--0-|-0----0-(0)------||
||o---3--0-(0)-0--0-|-0----0-(0)-----o||
||----3--2-(2)-2----|-1---------------||
||----x--1-(1)------|-2-----------2---||
||o-3-3--2-(2)------|-2-----------2--o||
||------------------|-0--0--------0---||


D.S. al Coda
 C9B7B7sEs4
|------2-(2)-0--0-|-0-0-0-0-0-0-0-0-0-0-0-0-||
|---3--0-(0)-0--0-|-0-0-0-0-0-0-0-0-0-0-0-0-||
|---3--2-(2)-2----|-1-1-1-1-1-1-1-1-1-1-1-1-||
|---x--1-(1)------|-2-2-2-2-2-2-2-2-2-2-2-2-||
|-3-3--2-(2)------|-2-2-2-2-2-2-2-2-2-2-2-2-||
|-----------------|-0-0-0-0-0-0-0-0-0-0-0-0-||


&
 E5
  Gtr III
| | | | | | |
Gtr II
|-----------------------------*|
|-----------------------------*|
|-/13-13-13-13-13-13-13\------*|
|-/12-12-12-12-12-12-12\------*|
|-/14-14-14-14-14-14-14\------*|
|-/12-12-12-12-12-12-12\------*|				



A5 B5 B7 C5 C9 E E5 G
variations - click chord images
Transpose chords:
Tuning:
Cool service:
View: Size:
A  A  A
Rating:
Layout:
  • Currently 2.1/5 Stars.
  • 1
  • 2
  • 3
  • 4
  • 5
 
Accuracy:
  • Currently 2.9/5 Stars.
  • 1
  • 2
  • 3
  • 4
  • 5
 
click stars to rate
Chordie recommends:
Check out JamPlay.com for online video guitar lessons
Songbook:
Login to add this song to your songbook
Support the artist
Preview/buy this song
MSN Music
Why this non-profit ad?

 
login to add comments/video/corrections