Chordie logo

Cover And Duck   Fort Minor



the songs call Cover and Duck from the Fort Minor - We Major mixtape
download it at http://www.fortminor.co.uk/mixtape/index.php

e-mail me at zoastev@yahoo.com if theres a problem or if u wanna leave a comment thnx

have fun


intro:
|--------------------------|
|--------------------------|
|--------------------------| x 3
|--------------------------|
|--------------------------|
|-5--8--8--8-8-8--0-3------|


|--------------------------|
|--------------------------|
|--------------------------| x 5
|--------------------------|
|-5--8--8--8-8-8--0-3------|
|-5--8--8--8-8-8--0-3------|

verse:
|--------------------------|
|--------------------------|
|--------------------------| x 10
|--------------------------|
|--------------------------|
|-5--8--8--8-8-8--0-3------|

|--------------------------|
|--------------------------|
|--------------------------| x 8
|----------------8-6-------|
|--------------------------|
|-5--8--8--8-8-8-----------|

What the fuck are you doing, man? You spilled my Cristal all over me
|--------------------------|
|--------------------------|
|--------------------------|
|--------------------------|
|--------------------------|
|-5--8--8--8-8-8--0-3------|

chorus:
|----------------------------------------------------|
|----------------------------------------------------|
|----------------------------------------------------| x 2
|-------55555555555555555/888888888888888888---------|
|----------------------------------------------------|
|----------------------------------------------------|

2nd guitar chorus:
|--------------------------|
|--------------------------|
|--------------------------| x 4
|--------------------------|
|-5--8--8--8-8-8-----------|
|-5--8--8--8-8-8--0-3------|

both guitars:
|--------------------------|
|--------------------------|
|--------------------------| x 2
|----------------8-6-------|
|-5--8--8--8-8-8-----------|
|-5--8--8--8-8-8-----------|


verse 2:
|--------------------------|
|--------------------------|
|--------------------------| x3
|--------------------------|
|--------------------------|
|-5--8--8--8-8-8--0-3------|

(when it rewinds)
|--------------------------|
|--------------------------|
|--------------------------| x 3
|----------------8-6-------|
|--------------------------|
|-5--8--8--8-8-8-----------|

|--------------------------|
|--------------------------|
|--------------------------| x 8
|--------------------------|
|--------------------------|
|-5--8--8--8-8-8--0-3------|

|--------------------------|
|--------------------------|
|--------------------------| x 8
|----------------8-6-------|
|--------------------------|
|-5--8--8--8-8-8-----------|

chorus 2:
|----------------------------------------------------|
|----------------------------------------------------|
|----------------------------------------------------| x 4
|-------55555555555555555/888888888888888888---------|
|----------------------------------------------------|
|----------------------------------------------------|

2nd guitar chorus:
|--------------------------|
|--------------------------|
|--------------------------| x 8
|--------------------------|
|-5--8--8--8-8-8--0-3------|
|-5--8--8--8-8-8--0-3------|


verse 3:
|--------------------------|
|--------------------------|
|--------------------------| x 3
|--------------------------|
|-5--8---------------------|
|-5--8--8--8-8-8--0-3------|

|--------------------------|
|--------------------------|
|--------------------------| x 1
|--------------------------|
|-5--8--8--8-8-8--0-3------|

|-5--8--8--8-8-8--0-3------|



|--------------------------|
|--------------------------|
|--------------------------| x 1 
|--------------------------|
|-5--8---------------------|
|-5--8--8--8-8-8--0-3------|

|--------------------------|
|--------------------------|
|--------------------------| x 7
|--------------------------|
|--------------------------|
|-5--8--8--8-8-8--0-3------|


|--------------------------|
|--------------------------|
|--------------------------| x 4
|----------------8-6-------|
|--------------------------|
|-5--8--8--8-8-8-----------|

You ready?, lets go!
|--------------------------|
|--------------------------|
|--------------------------| x 1
|--------------------------|
|--------------------------|
|-5--8--8--8-8-8--0-3------|

chorus 2

(when Celph Titled comes in)
|--------------------------|
|--------------------------|
|--------------------------| x 8
|--------------------------|
|-5--8--8--8-8-8--0-3------|
|-5--8--8--8-8-8--0-3------|


Outro:
|--------------------------|
|--------------------------|
|--------------------------| x 8
|--------------------------|
|--------------------------|
|-5--8--8--8-8-8--0-3------|



Order
---------
Intro
Verse
Chorus
Verse 2
Chorus 2
Verse 3
Chorus 2
Outro


Important: The song above is NOT stored on the Chordie server. The original song is hosted at www.guitaretab.com. Chordie works as a search engine and provides on-the-fly formatting. Chordie does not index songs against artists/composers will. To remove this song please click here.

This song is displayed as text-only. Transposing and tuning is only available for chordpro-songs.

Login - add to songbook

Rating click stars to rate

Layout
Accuracy

SHARE PAGE  



You need to log in to post comments