""; ?> Cover And Duck by Fort Minor - guitar chords, guitar tabs and lyrics - chordie

Cover And Duck

Fort Minor


the songs call Cover and Duck from the Fort Minor - We Major mixtape download it at http://www.fortminor.co.uk/mixtape/index.php
e-mail me at zoastev@yahoo.com if theres a problem or if u wanna leave a comment thnx
have fun
intro: |--------------------------| |--------------------------| |--------------------------| x 3 |--------------------------| |--------------------------| |-5--8--8--8-8-8--0-3------|
|--------------------------| |--------------------------| |--------------------------| x 5 |--------------------------| |-5--8--8--8-8-8--0-3------| |-5--8--8--8-8-8--0-3------|
verse: |--------------------------| |--------------------------| |--------------------------| x 10 |--------------------------| |--------------------------| |-5--8--8--8-8-8--0-3------|
|--------------------------| |--------------------------| |--------------------------| x 8 |----------------8-6-------| |--------------------------| |-5--8--8--8-8-8-----------|
What the fuck are you doing, man? You spilled my Cristal all over me |--------------------------| |--------------------------| |--------------------------| |--------------------------| |--------------------------| |-5--8--8--8-8-8--0-3------|
chorus: |----------------------------------------------------| |----------------------------------------------------| |----------------------------------------------------| x 2 |-------55555555555555555/888888888888888888---------| |----------------------------------------------------| |----------------------------------------------------|
2nd guitar chorus: |--------------------------| |--------------------------| |--------------------------| x 4 |--------------------------| |-5--8--8--8-8-8-----------| |-5--8--8--8-8-8--0-3------|
both guitars: |--------------------------| |--------------------------| |--------------------------| x 2 |----------------8-6-------| |-5--8--8--8-8-8-----------| |-5--8--8--8-8-8-----------|
verse 2: |--------------------------| |--------------------------| |--------------------------| x3 |--------------------------| |--------------------------| |-5--8--8--8-8-8--0-3------|
(when it rewinds) |--------------------------| |--------------------------| |--------------------------| x 3 |----------------8-6-------| |--------------------------| |-5--8--8--8-8-8-----------|
|--------------------------| |--------------------------| |--------------------------| x 8 |--------------------------| |--------------------------| |-5--8--8--8-8-8--0-3------|
|--------------------------| |--------------------------| |--------------------------| x 8
|----------------8-6-------| |--------------------------| |-5--8--8--8-8-8-----------|
chorus 2: |----------------------------------------------------| |----------------------------------------------------| |----------------------------------------------------| x 4 |-------55555555555555555/888888888888888888---------| |----------------------------------------------------| |----------------------------------------------------|
2nd guitar chorus: |--------------------------| |--------------------------| |--------------------------| x 8 |--------------------------| |-5--8--8--8-8-8--0-3------| |-5--8--8--8-8-8--0-3------|
verse 3: |--------------------------| |--------------------------| |--------------------------| x 3 |--------------------------| |-5--8---------------------| |-5--8--8--8-8-8--0-3------|
|--------------------------| |--------------------------| |--------------------------| x 1 |--------------------------| |-5--8--8--8-8-8--0-3------| |-5--8--8--8-8-8--0-3------|
|--------------------------| |--------------------------| |--------------------------| x 1 |--------------------------| |-5--8---------------------| |-5--8--8--8-8-8--0-3------|
|--------------------------| |--------------------------| |--------------------------| x 7 |--------------------------| |--------------------------| |-5--8--8--8-8-8--0-3------|
|--------------------------| |--------------------------| |--------------------------| x 4 |----------------8-6-------| |--------------------------| |-5--8--8--8-8-8-----------|
You ready?, lets go! |--------------------------| |--------------------------| |--------------------------| x 1 |--------------------------| |--------------------------| |-5--8--8--8-8-8--0-3------|
chorus 2
(when Celph Titled comes in) |--------------------------| |--------------------------| |--------------------------| x 8 |--------------------------| |-5--8--8--8-8-8--0-3------| |-5--8--8--8-8-8--0-3------|
Outro: |--------------------------| |--------------------------| |--------------------------| x 8 |--------------------------| |--------------------------| |-5--8--8--8-8-8--0-3------|
Order --------- Intro Verse Chorus Verse 2 Chorus 2 Verse 3 Chorus 2 Outro














variations - click chord images
Transpose chords:
Tuning:
Cool service:
View: Size:
A  A  A
Rating:
Layout:
  • Currently 0/5 Stars.
  • 1
  • 2
  • 3
  • 4
  • 5
 
Accuracy:
  • Currently 2.7/5 Stars.
  • 1
  • 2
  • 3
  • 4
  • 5
 
click stars to rate
Chordie recommends:
Learn to play guitar with video-based, online guitar lessons at JamPlay.com
Songbook:
Login to add this song to your songbook
Support the artist
Preview/buy this song
MSN Music
Why this non-profit ad?

 
login to add comments/video/corrections