Ekla Ghor

Fossils

 F-133211
C - 0 3 2 0 1 0

 Dm-557765
E - 0 2 2 1 0 0
****************************************

Intro-

	|-----0--------0-------------------------e
	|----1-1------1-1--------1--------1------B
	|---0---0----0---0------0-0------0-0-----G
	|--------3---------3---2---2----2---2----D
	|---------------------------0--------0---A
	|----------------------------------------E


 Am
 Ei ekla ghor aamar desh

Aamar ekla thakar obhbhesh
 G
Bhabi kichutei bhabbo na tomar kotha
 D
Boba telephoner pashe boshe
 F
Tobu gobhir rater agobhir cinena-e
 C
Jodi prem chay natuke biday
 Dm
Aami achchanno hoye porechhi aabar
e
Dekhi chokh bhije jae kannaye

 Am
 Ei ekla ghor aamar desh

Aamar ekla thakar obhbhesh
 G
Bhabi kichutei bhabbo na tomar kotha
 D
Boba telephoner pashe boshe
 F
Tobu gobhir rater agobhir cinena-e
 C
Jodi prem chay natuke biday
 Dm
Aami achchanno hoye porechhi aabar
e
Dekhi chokh bhije jae kannaye

 Am
Na na kandchi na
 F
Tomaye bhabchi na

Mone porche na ...
G e
... Tomake
 C
Tobu jachchi ki
 F
Phire jachchi ki
G e
Shei phele asha otite ...
... Shei Khotitei

	|-----0--------0-------------------------e
	|----1-1------1-1--------1--------1------B
	|---0---0----0---0------0-0------0-0-----G
	|--------3---------3---2---2----2---2----D
	|---------------------------0--------0---A
	|----------------------------------------E

 Am
 Bondhuder bhireo ekla-ekla aami

Khunje phiri lokhkho aamar
 G
 Paltachchena ei abosthata
 D
Jodio palte jaoai dorkar
 F
 Tomar barir pothe chholechi aabar
 C
Dei brishtita shongo aamay
 Dm
 Janalar kanche tumi dekhte pabe ki
e
Naki jhapsha ta ghor borshay

 Am
 Bondhuder bhireo ekla-ekla aami

Khunje phiri lokhkho aamar
 G
 Paltachchena ei abosthata
 D
Jodio palte jaoai dorkar
 F
 Tomar barir pothe chholechi aabar
 C
Dei brishtita shongo aamay
 Dm
 Janalar kanche tumi dekhte pabe ki
e
Naki jhapsha ta ghor borshay

 Am
Na na jachchi na

Kothao jachchi na
 F
Khuje pachchi na ...
G e
... She pohtake
 C
Tobu jachchi ki
 F
Phire jachchi ki
G e
Shei bhule jaoa tomakei ...

... Shei tomakei

 Am
Na na kandchi na

Tomaye bhabchi na
 F
Mone porche na ...
G e
... Tomake
 C
Tobu jachchi ki
 F
Phire jachchi ki
G e
Shei phele asha otite ...

 Am
Na na jachchi na

Kothao jachchi na
 F
Khuje pachchi na ...
G e
... She pohtake
 C
Tobu jachchi ki
 F
Phire jachchi ki
G e
Shei bhule jaoa tomakei ...

... Shei tomakei

	|---------------------e
	|-----1--------1------B
	|----0-0------0-0-----G
	|---2---2----2---2----D
	|--------0--------0---A
	|---------------------E	


Tomakei ...

	|-----0--------0-------e
	|----1-1------1-1------B
	|---0---0----0---0-----G
	|--------3---------3---D
	|----------------------A
	|----------------------E


Hmm ... Tomake ...

	|---------------------e
	|-----1--------1------B
	|----0-0------0-0-----G
	|---2---2----2---2----D
	|--------0--------0---A
	|---------------------E


Shei tomake ...

	|-----0--------0-------e
	|----1-1------1-1------B
	|---0---0----0---0-----G
	|--------3---------3---D
	|----------------------A
	|----------------------E


 Am
Hmm ...        

****************************************


Am C D Dm F G
variations - click chord images
Transpose chords:
Tuning:
Cool service:
View: Size:
A  A  A
Rating:
Layout:
  • Currently 2/5 Stars.
  • 1
  • 2
  • 3
  • 4
  • 5
 
Accuracy:
  • Currently 0/5 Stars.
  • 1
  • 2
  • 3
  • 4
  • 5
 
click stars to rate
Chordie recommends:
Get acoustic guitar lessons and electric guitar lessons at JamPlay.com
Songbook:
Login to add this song to your songbook
Support the artist
Preview/buy this song
MSN Music
Why this non-profit ad?

 
login to add comments/video/corrections