Planet Of Weed

Fountains Of Wayne

e|---------------------------------------------------------------------|

B|---------------------------------------------------------------------|
G|-------------5--------------4----------------------------------------|
D|---5----7---------6----7---------6/---------5--7--5--5---------------|
A|---------------------------------------3-----------7/----------------|
E|---------------------------------------------------------------------|
e|-----------------------------------------------------------------------|
B|-----------------------------------------------------------------------|
G|-------------5--------------4------------------------------------------|
D|---5----7---------6----7---------6/---------5--7--5--------------------|
A|---------------------------------------3-----------7/\\7---------------|
E|-----------------------------------------------------------------------|

 CAm
I\'ve got everything I need Here on the Planet of Weed

 Dm
There\'s not much going on

 G
But it\'s just my speed

 CAm
There\'s no hatred and no greed Here on the Planet of Weed

 DmG
Everyone gets along  It\'s quite pleasant indeed

Chorus---

 FDmC
Oh baby baby Won\'t you come with me Set your mind at ease

 E7
Set your spirit free

 FmajGDmG
What a wonderful life we could lead, Together          On the Planet of Weed

Verse---

 CAmDm
We\'ve got magazines to read We\'ve got Doritos to eat So lay back on the couch

 GCAm
And kick up your feet There\'s a movie on TV I\'ve been meaning to see

 DmG
It\'s by Oliver Stone   

Chorus---

 FDmC
Oh baby baby Won\'t you come with me Set your mind at ease

 E7
Set your spirit free

 FmajGDmG
What a wonderful life we could lead, Together   

E7 c/G Dm G
Forever Life is better, On the Planet of Weed

Outro---

(F C G C reapeat and fade out)

e|---------------------------------------------------------------------|
B|---------------------------------------------------------------------|
G|----------4--5----------4--5---------4--7--5-5---5---5----5----------|
D|--7-7--7--------5-5--5-------5-5--5----------------7-----------------|
A|-------------------------------------------------------5h7-----------|
E|---------------------------------------------------------------------|

repeat and fade out

-Liam J. Rider


Am C Dm E7 F Fmaj G
variations - click chord images
Transpose chords:
Tuning:
Cool service:
View: Size:
A  A  A
Rating:
Layout:
  • Currently 0/5 Stars.
  • 1
  • 2
  • 3
  • 4
  • 5
 
Accuracy:
  • Currently 0/5 Stars.
  • 1
  • 2
  • 3
  • 4
  • 5
 
click stars to rate
Chordie recommends:
Learn to play guitar with video-based, online guitar lessons at JamPlay.com
Songbook:
Login to add this song to your songbook
Support the artist
Preview/buy this song
MSN Music
Why this non-profit ad?

 
login to add comments/video/corrections