"yes"; ?> Mandalay by Four Jacks - guitar chords, guitar tabs and lyrics - chordie

Mandalay

Four Jacks

|------------------|-----------------|------------------|-----------------|

|------------------|-----------------|------------------|-----------------|
|-3--3-2-----------|-----------------|-3--3-1-----------|-----------------|
|----------5---3---|-1-----------3---|----------4---3---|-1-----------3---|
|------------------|-----5---3-------|------------------|-----4---3-------|
|------------------|-----------------|------------------|-----------------|
|-1-1-1-1-3---3---|-1---1---3-------|-8-8-8-8---------|-6---|
|-1-1-1-1-3---3---|-1---1---3-------|-6-6-6-6-8---8---|-----|
|-----------------|-----------------|---------7---7---|-6---|
|-----------------|-----------------|-----------------|-----|
|-----------------|-----------------|-----------------|-----|
|-----------------|-----------------|-----------------|-----|

 BbBdimCmFF/AGm7CD7EbF/Eb
e:---0-----0-----2----0----0-----2---------------2-----4----:
B:---2-----2-----3----0----0-----2----4----2-----3-----5----:
G:---2-----0-----4----1----1-----2----4----4-----2-----4----:
D:---2-----2-----4----2----2-----2----4----3-----0-----0----:
A:---0-----1-----2----2----x-----4----2----4----------------:
E:--------------------0----4-----2--------------------------:


Vers: (Bbmol)
Bbm Cø Db Ebm F Aø Ab Gb
 :-------------0-----1----0----0----3----1----:
 :---1----3----1-----3----0----0----0----1----:
 :---2----2----0-----2----1----4----0----2----:
 :---2----3----2-----0----2----0----0----3----:
 :---0----2----3---------------x----2----3----:
 :-----------------------------4----3----1----:


Digtet:
Sangen var oprindeligt et digt skrevet af R. Kipling (1865-1936), som også skrev
bl.a. Junglebogen. Det blev genialt oversat til dansk af Kai Friis Møller.
Derfor syntes jeg det ville være synd hvis de vers, som Four Jacks har udeladt,
gik i glemmebogen. Her er digtet i sin fulde længde.

Ved den grå Moulmein Pagode, med sit blik mod havets blå,
sidder der en Burma-pige, det er mig hun tænker på.
Hvisker palmesuset ikke, synger templets klokker ej:
Kom igen, soldat fra England, kom igen til Mandalay!
Kom igen til Mandalay, ad flotillens gamle vej,
husker du pagajens dunken fra Rangoon til Mandalay?
Oh, den vej til Manadalay, fuld af flyvefisk i leg,
og hvor solen brød som torden frem bag Kina-bugtens kaj!

Gult var skørtet, grøn var huen, som min Burma-jomfru bar,
Supiyawlat hed hun - samme navn, som Theebaws dronning har.
På en hvid cerut hun røg, da første gang hun for mig stod,
og hun ødsled kristne kysse på en hedensk afguds fod.
Kun af snavs den gud bestod, kaldtes Buddha, vis og god,
men da vi tog til at kysse, hun sin gud i stikken lod.
Oh, den vej til Mandalay, fuld af flyvefisk i leg,
og hvor solen brød som torden frem bag Kinabugtens kaj!

Når hver rismark drev af tåge, og det led mod solnedgang,
greb hun i sin lille banjo, og Kulla-lo-lo hun sang.
Kind mod kind vi sad og så på bugtens både, stavn ved stavn,
så den store hathi gøre som en tømmerlæmper gavn.
Stable teaktræ favn på favn, i den sjip-sjap-våde havn,
hvor der var så tavst, jeg næppe turde viske hendes navn.
Oh, den vej til Manadalay, fuld af flyvefisk i leg,
og hvor solen brød som torden frem bag Kinabugtens kaj!

Alt det ligger år tilbage og er milelangt fra mig,
og fra Bank of England går der ingen bus til Mandalay.
Hvad det gamle mandskab siger, må jeg sande højlig her:
"Den som østen først har kaldt på kan kun trække der sit vejr!"
Alting er mig til besvær, på den lugt af hvidløg nær,
og det solskin og de palmer, og de klingre klokker der.
Oh, den vej til Manadalay, fuld af flyvefisk i leg,
og hvor solen brød som torden frem bag Kinabugtens kaj!

Jeg er syg nu af at slide på de skidne fortovssten,
og den fæle London-støvregn går mig gennem marv og ben.
Vel halvhundred piger har jeg her, fra Chelsea og til Strand,
der kun snakker om at elske, hvad jeg ikke tror, de kan.
Skabt som køer - åh hvordan skal jeg tro, de elske kan,
som min lille Burma-pige i det kønne grønne land.
Oh, den vej til Manadalay, fuld af flyvefisk i leg,
og hvor solen brød som torden frem bag Kinabugtens kaj!

Sejl mig ud der øst for Suez, der hvor sidste mand er først,
hvor de ti bud ikke gælder, og hvor folk kan føle tørst.
For nu kalder templets klokker, og jeg ønsker kun, jeg lå
ved den grå Moulmein Pagode og betragted havets blå.
Ak, den vej til Mandalay, hvor flotillen tog den vej,
med de syge under solsejl, da vi gik til Mandalay!
Oh, den vej til Manadalay, fuld af flyvefisk i leg,
og hvor solen brød som torden frem bag Kinabugtens kaj!

- 7th /October /08
Just mail me at Maitinin@gmail.com with questions, comments and corrections!


Bb Bdim C Cm D7 Eb F Gm7
variations - click chord images
Transpose chords:
Tuning:
Cool service:
View: Size:
A  A  A
Rating:
Layout:
  • Currently 4/5 Stars.
  • 1
  • 2
  • 3
  • 4
  • 5
 
Accuracy:
  • Currently 3.4/5 Stars.
  • 1
  • 2
  • 3
  • 4
  • 5
 
click stars to rate
Chordie recommends:
Learn to play this song & others via video guitar lessons at JamPlay.com
Songbook:
Login to add this song to your songbook
Support the artist
Preview/buy this song
MSN Music
Why this non-profit ad?

 
login to add comments/video/corrections