Guitar Tabs, Chords and Lyrics


Oh What A Night   Four Seasons



Four Seasons - Oh What a Night! (1994) - Bass tabs

Standard tuning (EADG)

A great song!

B.

     (theme) 2x
---|-------------------------------------------|------------|
-6-|---------------------4-4--4----4--4---6--6-|------------|
---|----------4---6---8------------------------|----------4-|
---|-4--6--8-----------------------------------|-4--6--8----|

(break with percussions and then with piano repeating the theme)

---|          |---------|
-6-| theme 6x |---------|
---|          |---------|
---|          |-4--6--4-|


  (bridge 1)
|-----------------6------------------------------------------------------|
|------4----8--------6----6-8-6---6-8-(6)--------4----6----------6-------|
|-6-----------------------------------------6------------6----------6----|
|-------------------------------6---------------------------4----------4-|

|          |---------|
| theme 4x |---------|
|          |---------|
|          |-4--6--4-|

  (bridge 2) 1st part 2x
|---------------------------------------------------|
|---------------------------------------------------|
|-------------------------------4---6---4-6-4-6-4---|
|-6---6--6-4---6---6--6-4---6---------------------6-|

  (bridge 2) 2nd part
|---------------------------------------------------|
|---------------------------------------------------|
|-6---6--6-4---6---6--6-4---8---8--8-6---8---8--8-6-|
|---------------------------------------------------|

  (bridge 2) 3rd part
|-----------------------------------------------|
|--------------------------6---6--6----6--8--10-|
|-9---9--9-8---9---9--9-8-----------6-----------|
|-----------------------------------------------|
    
  (second half of the theme)       (the theme with two extra notes)
|---------------------------------|-----------------------------------------------|
|------------4-4--4---4--4---6--6-|---------------------4-4--4----4\3--4\3---6--6-|
|-4---6---8-----------------------|----------4---6---8----------------------------|
|---------------------------------|-4--6--8---------------------------------------|
 
|          |---------|          |          |------------|
| theme 2x |---------| bridge 1 | theme 6x |------------|
|          |---------|          |          |----------4-|
|          |-4--6--4-|          |          |-4--6--8----|

(break with percuissions)

|          |---------------------------------|          |
| bridge 2 |------------4-4--4---4--4---6--6-| theme 5x |
|          |-4---6---8-----------------------|  fades   |
|          |---------------------------------|    out   |


Important: The song above is NOT stored on the Chordie server. The original song is hosted at www.guitaretab.com. Chordie works as a search engine and provides on-the-fly formatting. Chordie does not index songs against artists/composers will. To remove this song please click here.

This song is displayed as text-only. Transposing and tuning is only available for chordpro-songs.

Login - add to songbook

Rating click stars to rate

Layout
Accuracy

SHARE PAGE  




You need to log in to post comments