Guitar Tabs, Chords and Lyrics


Live Wire   Fozzy



fozzy-live wire
         just tune it standard(eadgbe)
 
|---------------------------------------------|
|---------------------------------------------|
|-5--5555---55---5555---55---5555---55--55----|
|-3--3333---33---3333---33---3333---33--33----|x4
|---------------------------------------------|
|---------------------------------------------|
pm   ....        ....        ....

|-----------------------------------------------|
|-----------------------------------------------|
|-5--5555---55---5555---55---5555---55--5--5----|
|-3--3333---33---3333---33---3333---33--3--3----|x3
|-----------------------------------------------|
|-----------------------------------------------|
pm   ....        ....        ....

|----------------------------|
|----------------------------|
|-5----6----3----5/3---------|
|-3----4----1----3/1---------|
|----------------------------|
|----------------------------|


|------------------------------|        |----------------|
|------------------------------|x7 then |----------------|
|-5--7---5-----7-----55555-----|        |-5--7---5---7/--|
|-3--5---3-----5-----33333-----|        |-3--5---3---5/--|
|------------------------------|        |----------------|
|------------------------------|        |----------------|


repeat everything above 

|--------------------|
|--------------------|
|-9---7---5---7------|
|-7---5---3---5------|x3
|--------------------|
|--------------------|


|------------------------------|        |----------------|
|------------------------------|x7 then |----------------|
|-5--7---5-----7-----55555-----|        |-5--7---5---7/--|
|-3--5---3-----5-----33333-----|        |-3--5---3---5/--|
|------------------------------|        |----------------|
|------------------------------|        |----------------|


|-------------------|
|-------------------|
|-9----7---5---7----|
|-9----7---5---7----|
|-7----5---3---5----|x2
|-------------------|


|---------------------------------------------|
|---------------------------------------------|
|-5--5555---55---5555---55---5555---55--55----|
|-3--3333---33---3333---33---3333---33--33----|x3
|---------------------------------------------|
|---------------------------------------------|
pm   ....        ....        ....


|----------------------------------------------------------------------|
|----------------------------------------------------------------------|
|-5--5555---55---5555---55---5555--------------------------------------|
|-3--3333---33---3333---33---3333-----10--10--12-13-12--10----7--------|
|----------------------------------------------------------------------|
|----------------------------------------------------------------------|
pm   ....        ....        ....


well dats it 
this is only 1 guitar



Important: The song above is NOT stored on the Chordie server. The original song is hosted at www.guitaretab.com. Chordie works as a search engine and provides on-the-fly formatting. Chordie does not index songs against artists/composers will. To remove this song please click here.

This song is displayed as text-only. Transposing and tuning is only available for chordpro-songs.

Login - add to songbook

Rating click stars to rate

Layout
Accuracy

SHARE PAGE  




You need to log in to post comments