Chordie logo


Gran Jota   Francisco Tarrega



----------------------------------------------------------------------------
			     Gran Jota - Francisco Tarrega
----------------------------------------------------------------------------
Tabbed by: Danilo19

Tuning: standard

e|8--7--5---|-5----4-4/12--10p7---0-|--10--8---7--7---5-8/12-7p5-----------|
B|5--6--5---|-3-----------------9---|--9---10--9--5--------------5---------|
G|5--7--5---|-4---------------------|--7---9---7--5----------------5-------|
D|7--7--7---|-2---------------------|--9---7---9--7------------------7-----|
A|0--0--0---|-2---------------------|--7---7---7--0------------------------|
E|----------|-0---------------------|--0---0---0---------------------------|

e|--12---12--12--12--12-|--12/11---|-10--10--10--10--10---10-|
B|--10---10--10--10--10-|--10/10---|-10--10---9--9----9----9-|
G|---9----9---9---9---9-|--11/11---|-9----9---9--9---10----9-|
D|--10---10--10--10--10-|--10/9----|-9----9---9--9----9----9-|
A|----------------------|----------|-------------------------|
E|----------------------|----------|-------------------------|

e|--10---8--|--8---8---8---8---8---7--|--8-----7---|--5--5-5--5---5----5---|
B|--10--10--|-10--10--10--10--10--10--|-10----10---|--7--7-7--7---7----7---|
G|---9---9--|--9---9---9---9---9---9--|-10----10---|--5--5-5--5---5----5---|
D|---7---7--|--7---7---7---7---7---7--|--0-----0---|-----------------------|
A|----------|--7---7---7---7---7---7--|------------|--6--6-6--6---6----6---|
E|----------|-------------------------|------------|-----------------------|

e|--4----------------|--------------|-------------------|------------------|
B|--5-----5-----6----|--7-----8-----|--6-----5-----4----|--5---------------|
G|--4-----4-----5----|--6-----7-----|--5-----5-----5----|--4-----1-----2---|
D|--------6-----7----|--8-----9-----|--7-----7-----7----|--6---------------|
A|-------------------|--------------|-------------------|--------2-----3---|
E|--0--0--0--0--0--0-|--0--0--0--0--|--0--0--0--0--0--0-|--0--0--0--0--0--0|



Important: The song above is NOT stored on the Chordie server. The original song is hosted at www.guitaretab.com. Chordie works as a search engine and provides on-the-fly formatting. Chordie does not index songs against artists/composers will. To remove this song please click here.

This song is displayed as text-only. Transposing and tuning is only available for chordpro-songs.

Login - add to songbook

Rating click stars to rate

Layout
Accuracy

SHARE PAGE  




You need to log in to post comments