Guitar Tabs, Chords and Lyrics


Damage King   Frank Klepacki



-----------------------------------------------------------------------------
			     Damage King - Frank Klepacki
-----------------------------------------------------------------------------
Tabbed by: area5x1
Email: unknown5area1@gmail.com

Tuning: C Tuning

Please rate and comment! This is for the short version (0:59) of Damage Control titled 
in your Universe at War audio folder

RIFF #1 (x2)
|---------------------------------------------------------------------------|
|---------------------------------------------------------------------------|
|---------------------------------------------------------------------------|
|3--3--2--3--3--2--8--7--5--6--7--------2--2--3--3--2-----------------------|
|3--3--2--3--3--2--8--7--5--6--7--------2--2--3--3--2----5-6-7-X-X-8-X-X-8--|
|1--1--0--1--1--0--6--5--3--4--5--4--5--0--0--1--1--0-----------------------|
                                        PM PM PM PM

RIFF #2 (x8) Palm Mute first 3 times then slowly let go
|-----------------------------------------------------|
|-----------------------------------------------------|
|-----------------------------------------------------|
|-----------------------------------------------------|
|-----------------------------------------------------|
|0--6--5--3--5--3--2--3-------------------------------|

Then play Riff #1 again 2 times.

FADING OUTRO                                  (Not sure about 0-1-2-1-0--------| part)
|------------------------------------------------------------------------------|
|------------------------------------------------------------------------------|
|------------------------------------------------------------------------------|
|---2--0-----------2--0--------------------2--0----------2--0-------0-1-2-1-0--|
|----------------------------0---1--0------------------------------------------|
|-0------2--3---0-------2--3---0--------0--------2--3--0------2--3-------------|


| /  slide up
| \  slide down
| h  hammer-on
| p  pull-off
| ~  vibrato
| +  harmonic
| x  Mute note
| PM Palm Mute


Important: The song above is NOT stored on the Chordie server. The original song is hosted at www.guitaretab.com. Chordie works as a search engine and provides on-the-fly formatting. Chordie does not index songs against artists'/composers' will. To remove this song please click here.

This song is displayed as text-only. Transposing and tuning is only available for chordpro-songs.

Login - add to songbook

Rating click stars to rate

Layout
Accuracy

SHARE PAGE  




You need to log in to post comments