Chordie logo

content loaded from cache

Ajena  Frank Reyes

|--------11--15-13-11---------------11-15-13-11-----|


|--13--13------------13-------13--13-----------13---|


|12--12----------------12---12--12---------------13-|


|---------------------------------------------------|


|---------------------------------------------------|


|---------------------------------------------------|
|--------10-11-11p10------------------10-13-11p10----|
|--13--13-------------13-11-----11--11------------13-|
|13--13-----------------------10--10-----------------|
|----------------------------------------------------|
|----------------------------------------------------|
|----------------------------------------------------|2x
|--------10-11-10--11-10-----------0-10-0---10-0-----|
|--13--13--------13----------12--12-------12---------|
|12--12--------------------12--12--------------------|
|----------------------------------------------------|
|----------------------------------------------------|
|----------------------------------------------------|4x
|-(0)~-----------------------------------------------|
|-----0~-----------0----0-----0----------------------|
|-------0~-------0----12---10--------0----0----------|
|------------10-------------------13---12----10------|
|----------------------------------------------------|
|----------------------------------------------------|

capo en el 8
Cm (x-x-10-0-0-0)   A# (x-x-12-10-11-10)  G# (x-x-10-0-9-x)
Fm (x-x-10-10-9-x)  D# (x-x-13-12-11-x)  D# II (x-x-0-0-0-x)

G7 (x-10-9-10-0-10)


[Cm]Al conocernos me prometis[A#]tes
Darme tu[Cm] amor para toda la vi[A#]da
Pero muy [G#]tarde me he dado c[Fm]uenta
que me enga[G#]ñabas que me h[Fm]ablabas me[G7]ntiras

De[Fm]jastes que de ti me enam[A#]orara
D# Gm Cm D# II
Que me acostumbrara solamente a tu cariño
Y a[Fm]hora estoy pagando mi con[A#]dena
Tu no de[G#]bistes estar con[Fm]migo siendo a[G7]jena
No[Fm] ves cuanto me hiere tu [A#]traicion
D# Gm Cm D# II
Yo que soñaba con hacerte solo mia
Tu error[Fm] me lastimastes el cora[A#]zon
Si lo enga[G#]ñastes a El [Fm]a mi lo mismo me [G7]harias...
[Cm]Que lastima me da..  aun corre por mis venas
La [Fm]llama de pasion que me [G7]dejastes..

pero tu eres ajena
[Cm]Ay que lastima me da..  aun corre por mis venas
la [Fm]llama de pasion que me d[G7]ejastes..
Pero tu eres ajena.

Intro
y despues esta parte


|--------11--15-13-11-15-13------------10-13-11-10-15-11|
|--13--13------------------------12--12-----------------|
|12--12------------------------12--12-------------------|
|-------------------------------------------------------|
|-------------------------------------------------------|
|-------------------------------------------------------|  



De[Fm]jastes que de ti me enam[A#]orara
D# Gm Cm D# II
Que me acostumbrara solamente a tu cariño
Y a[Fm]hora estoy pagando mi con[A#]dena
Tu no de[G#]bistes estar con[Fm]migo siendo a[G7]jena
No[Fm] ves cuanto me hiere tu [A#]traicion
D# Gm Cm D# II
Yo que soñaba con hacerte solo mia
Tu error[Fm] me lastimastes el cora[A#]zon
Si lo enga[G#]ñastes a El [Fm]a mi lo mismo me [G7]harias...
[Cm]Que lastima me da..  aun corre por mis venas
La [Fm]llama de pasion que me [G7]dejastes..

pero tu eres ajena
[Cm]Ay que lastima me da..  aun corre por mis venas
la [Fm]llama de pasion que me d[G7]ejastes..
Pero tu eres ajena.[Cm]

Important: The song above is NOT stored on the Chordie server. The original song is hosted at www.guitaretab.com. Chordie works as a search engine and provides on-the-fly formatting. Chordie does not index songs against artists/composers will. To remove this song please click here.

A# Cm Fm G# G7
variations - click chord images

Transpose chords

Tuning

Rating click stars to rate

Layout
Accuracy

SHARE PAGE  



You need to log in to post comments