Chordie logo


Dont Wanna Try Acoustic   Frankie J



Song: Don't Wanna Try
Artist: Frankie J
4/16/05

This acoustic version is from Sessions @AOL. The whole song is played with two guitars
but the intro only has one guitar playing. This melody is not only played in the intro
but throughout the song. I heared the song today and i figured this part out in an hour.
I'm satisfied with just figuring this part out but I might figure out the rest. The
chorus and the bridge have the chords somewhere around C D Em (the finger placement for
this picking). try and figure out the rest!
Standard Tuning
Capo on 1st fret! 
Note: strum Em from e to E (strum up). 

Part I
e|------------0----0---------------------------------------------|
B|----3--3---3-3-3-0---------------------------------------------|
G|---0-0--0-2---2--0---------------------------------------------|
D|--2---2--0-------2---------------------------------------------|
A|-3---------------2---------------------------------------------|
E|-----------------0---------------------------------------------|
Part II
e|------------0--------0-----------------------------------------|
B|----3--3---3-3-3----0-0---3---3--------------------------------|
G|---0-0--0-2---2----0---0---2-----------------------------------|
D|--2---2--0--------2------0---0---------------------------------|
A|-3---------------2---------------------------------------------|


Important: The song above is NOT stored on the Chordie server. The original song is hosted at www.guitaretab.com. Chordie works as a search engine and provides on-the-fly formatting. Chordie does not index songs against artists/composers will. To remove this song please click here.

This song is displayed as text-only. Transposing and tuning is only available for chordpro-songs.

Login - add to songbook

Rating click stars to rate

Layout
Accuracy

SHARE PAGE  




You need to log in to post comments