Michael

Franz Ferdinand

e|-----------------|-----------------|-----------------|-----------------|

B|-----------------|-----------------|-----------------|-----------------|
G|-----------------|-----------------|-----------------|-----------------|
D|-4-4-4-6-6-6-7-7-|-4-4-4-6-6-6-7-7-|-----------------|-----------------|
A|-----------------|-----------------|-4-4-4-7-7-7-4-4-|-4-4-4-4-4-4-----|
E|-----------------|-----------------|-----------------|-------------7-5-|
e|-----------------|-----------------|-----------------|-----------------|
B|-----------------|-----------------|-----------------|-----------------|
G|-----------------|-----------------|-----------------|-----------------|
D|-4-4-4-6-6-6-7-7-|-4-4-4-6-6-6-7-7-|-----------------|-----------------|
A|-----------------|-----------------|-7-7-7-6-6-6-4-4-|-4-4-4-4-4-4-----|
E|-----------------|-----------------|-----------------|-------------7-5-|
e|-----------------|-----------------|-----------------|-----------------|
B|-----------------|-----------------|-----------7-7-7-|-7-7-7-5-4-------|
G|-----------------|-6-6-----------5-|-5-5-5-4---------|-----------------|
D|-4-4-4-6-6-6-7-7-|-----4-4-6-6-7---|---------6-------|-----------------|
A|-----------------|-----------------|-----------------|-----------------|
E|-----------------|-----------------|-----------------|-----------------|

 F#G#EF#
 This is where I'll be, so heavenly, So come and dance with me Michael
 F#G#EF#
 So sexy, I'm sexy, So come and dance with me Michael
 F#G#EF#
 I'm all that you see, you wanna see, So come and dance with me Michael
 F#G#
 So close now, it's close now
E>>> E>>> E>>>
So come and dance with me, come and dance with me, come and dance with me

 C#E
 Michael, you're the boy with all the leather hips
 F#
 Sticky hair, sticky hips, stubble on my sticky lips
 C#E
 Michael, you're the only one I'd ever want
 F#
 Only one I'd ever want, only one I'd ever want
 C#E
 Beautiful boys on a beautiful dance floor
 F#
 Michael you're dancing like a beautiful dance whore
 C#E
 Michael waiting on a silver platter now...
 F#C#
 And nothing matters now

This is what I am, I am a man
So come and dance with me Michael
So strong now, its strong now
so come and dance with me Michael
I'm all that you see, you wanna see
So come and dance with me Michael
So close now, its close now
So come and dance with me, come and dance with me, come all over me

CHORUS


C# E F# G#
variations - click chord images
Transpose chords:
Tuning:
Cool service:
View: Size:
A  A  A
Rating:
Layout:
  • Currently 3.5/5 Stars.
  • 1
  • 2
  • 3
  • 4
  • 5
 
Accuracy:
  • Currently 4.7/5 Stars.
  • 1
  • 2
  • 3
  • 4
  • 5
 
click stars to rate
Chordie recommends:
Check out these online guitar lessons
Songbook:
Login to add this song to your songbook
Support the artist
Preview/buy this song
MSN Music
Why this non-profit ad?

 
login to add comments/video/corrections