Jacqueline

Franz Ferdinand

 Cm
 Jacqueline was seventeen, working on a desk
 G#A#
When Ivor peered above her spectacle
 A#7
Forgot that he had wrecked a girl
 CmG#A#
    Sometime these eyes forget the face they're peering from
 A#7A#7G
When the face they peer upon        
 Cm
Well you know that face as I do
 G#
And how in the return of the gaze
 A#Cm
She can return you the face that you're staring from

Bass:
|-------------------------3-3-3-3------------------|
|-----------------1-1-1-1--------------------------|
|-3-3-3-3-3-3-3-3----------------------------------|
|--------------------------------------------------| x2


Guitar:
Riff-1
|--------------------------------------------------|
|-----------------4-4-4----------------------------|
|-------------5-5-------5-5------------------------|
|-------5-5-5---------------5-5--------------------|
|-3-3-3--------------------------------------------|
|--------------------------------------------------| x2


Riff-2
|--------------------------------------------------|
|-8-8-4--6b--8-8-4--6b--8-8-4--6~-6-6-4-4-3-3------|
|--------------------------------------------------|
|--------------------------------------------------|
|--------------------------------------------------|
|--------------------------------------------------| x2


Part-3:
|--------------------------------------------------|
|--------------------------------------------------|
|--------------------------------------------------|
|--------------------3-5-6-5-3---------------------|
|-3-3-3-6-3-3-3-5-6------------6-5-----------------|
|--------------------------------------------------| x2
|--------------------------------------------------|
|--------------------------------------------------|
|--------------------------------------------------|
|--------------------3-5-6-5-3---------------------|
|-3-3-3-6--3-5-6----------------6-5-----------------|
|--------------------------------------------------| x1
|--------------------------------------------------|
|--------------------------------------------------|
|--------------------------------------------------|
|--------------------3-5-6-5-3---------------------|
|-3-3-3-6-3-3-3-5-6------------6-5-----------------|
|--------------------------------------------------| x1


Chorus:
 CmA#G
 It's always better on holiday
 CmD#A#
 So much better on holiday
 CmA#GCmD#A#
 That's why we only work when we need the money       x2

 Cm
 Gregor was down again
 G#
Said, 'Come on, kick me again'
 A#A#7
Said, 'I'm so drunk I don't mind if you kill me'

 CmG#
 Come on you gutless
 A#
 Yeah, I'm alive
 A#7
I'm alive
 GCm
I'm alive and how I know it
 G#A#Cm
But for chips, and for freedom I could die

Riff 2 (x1)

Chorus (x2)

Break:
|--------------------------------------------------|
|--------------------------------------------------|
|--------------------------------------------------|
|-3-------5-6-8------------------------------------|
|-3-------5-6-8------------------------------------|
|-1-------3-4-6------------------------------------|


Riff-1 (x4)

|--------------------------------------------------|
|-x-4-x--------------------------------------------|
|-x-5-x--3333--------------------------------------|
|-x-5-x--3333--------------------------------------|
|-x-3-x--1111--------------------------------------|
|--------------------------------------------------|

four times repeated, figure out the strumming by listening the song

Chorus (x2)

finish on Cm

This is my correction of the
http://ultimate-guitar.com/tabs/f/franz_ferdinand/jacqueline_ver2_tab.htm


A# A#7 Cm D# G G#
variations - click chord images
Transpose chords:
Tuning:
Cool service:
View: Size:
A  A  A
Rating:
Layout:
  • Currently 2.5/5 Stars.
  • 1
  • 2
  • 3
  • 4
  • 5
 
Accuracy:
  • Currently 4/5 Stars.
  • 1
  • 2
  • 3
  • 4
  • 5
 
click stars to rate
Chordie recommends:
Check out these online guitar lessons
Songbook:
Login to add this song to your songbook
Support the artist
Preview/buy this song
MSN Music
Why this non-profit ad?

 
login to add comments/video/corrections