Guitar Tabs, Chords and Lyrics


Jag Ger Dig Min Morgon  Fred Akerstrom

[G]                   [C]                    [G]                                            
|-------------------------------------------------------------|
|-----0-------0-------1-------1-----------1-------1-----------|
|---0---0---0---0---0---0---0---0---0---0---0---0---0---------|
|-------------------------------------------------------------|
|-----------------3-------3-----------------------------------|
|-3-------3----------------------0h2p3---------3--------------|


[C]                             [G]                                                     
---------------------------------------------------------|
----------1-------1-------------0---------0---------0----|
--------0---0---0---0---------0---0-----0---0-----0---0--|
---------------------------------------------------------|
--0h2p3-------3------------------------------------------|
-----------------------0h2p3---------3---------3---------|


[G]                                                                                  
------------------------|
------0------------0----|
----0---0--------0---0--|
------------------------|
------------------------|
-3---------0h2p3--------|

Walk down from G to Em:

|-----------|
|-----------|
|---0---0---|
|-----------|
|-----------|
|-3---2---0-|



Chords:
[G]            [C]            [Em]            [D]                                              
|-----------|-----------|-----------|-----------|
|-----0-----|-----1-----|-----0-----|-----3-----|
|---0---0---|---0---0---|---0---0---|---2---2---|
|-----------|-----------|-----------|-0---------|
|-----------|-3---------|-----------|-----------|
|-3---------|-----------|-0---------|-----------|



Verse 1:

[G]Återigen gryr dagen vid di[C]n ble[G]ka skuldra
Genom frostig glas syns sole[C]n som [G]en huldra
[Em]Ditt hår det flyter över hela[D] kudden

Chorus:

Om du var[G] vaken skulle jag ge[C] dig
[G]Allt det där jag aldrig ger[C] dig
[Em]Men du, jag ger dig mi[C]n mor[D]gon
Jag ger dig min[G] dag

Verse 2: (the same chords as in the Verse 1)
Vår gardin, den böljar svagt där solen strömmar
Långt bakom ditt öga svinner nattens drömmar
Du drömmer om nåt fint, jag ser du småler

Chorus:

Om du var vaken...


Verse 3:

Utanför vårt fönster hör vi markends sånger
Som ett rastlöst barn om våren dagen kommer
Lyssna till den sång som jorden sjunger


Chorus:

Om du var vaken...


Verse 4:

Likt en sländas spröda vinge ögat skälver
Solens smälta i ditt hår kring pannan välver
Du, jag tror vi flyr rakt in i solen


Chorus/outro: (the same as the other Chorus)

Om du var vaken skulle jag ge dig
Allt det där jag aldrig ger dig
Men du, jag ger dig min morgon
Jag ger dig min dag
Men du, jag ger dig min morgon
Jag ger dig min dag


.__________________________________________________________________________.
|The tab isn´t difficult at all, but I´m not shure it´s 100% right, but at |
|least it sounds good. So I made this tab, not all by myself, I have used |
|other tabs but changed stuff I didn´t think sounded good. Enjoy it and plz|
|rate it and comment things you think is wrong. |
| / Mithor |
|__________________________________________________________________________|

Important: The song above is NOT stored on the Chordie server. The original song is hosted at www.guitaretab.com. Chordie works as a search engine and provides on-the-fly formatting. Chordie does not index songs against artists'/composers' will. To remove this song please click here.

Text color:
Chord color:
Chord grids: 
Font size:    
Page size: 

C D Em G
variations - click chord images

Login - add to songbook

Transpose chords

Tuning

Rating click stars to rate

Layout
Accuracy

SHARE PAGE  




You need to log in to post comments