Estudyante Blues

Freddie Aguilar

Intro: E--B--A--B--; (2x)

e|-----------------------|-------------------|----------------|-------------------|
B|-15b-20-20h21-18h20-16-|-14-14-17-19-17-14-|-14-14----------|-------------------|
G|-----------------------|-------------------|-------16-14-16-|-16h18p16----------|
D|-----------------------|-------------------|----------------|----------18-16-14-|
A|-----------------------|-------------------|----------------|-------------------|
E|-----------------------|-------------------|----------------|-------------------|
e|---------------------|
B|---------------------|
G|---------14----18-16-|
D|14-18-14----14-------|
A|---------------------|
E|---------------------|

 E
 Ako ang nakikita, ako ang nasisisi
 B
Ako ang laging may kasalanan
 A
Paggising sa umaga, sermon ang almusal
 E
Bago pumasok sa eskwela
 B
Kapag nangangatwiran, ako'y pagagalitan
A Riff 1
Di ko alam ang gagawin
 B
 Ako'y sunud-sunuran, ayaw man lang pakinggan
 A
 Nasasaktan ang damdamin.

Refrain
 AG#F#-E
 Ako'y walang kalayaan
 B
Sunod sa utos lamang.

 E
Paggaling sa eskwela, diretso na ng bahay
 B
Wala naman akong aabutan
 A
 Wala doon si Nanay, wala doon si Tatay
 E
Katulong ang naghihintay
 B
Pagtawag ng barkada, sa kanila'y sasama
A Riff 1
Lagot na naman paglarga
 B
Kapag nangangatwiran, ako'y pagagalitan
 A
Di ko alam ang gagawin.

Repeat Refrain & 1st verse

Repeat Refrain

E break E break
Ako ang nakikita, ako ang nasisisi
E break
Ako ang laging may kasalanan.

Sa rhythm, its like 12 bar blues with rock feelings


A B E G#
variations - click chord images
Transpose chords:
Tuning:
Cool service:
View: Size:
A  A  A
Rating:
Layout:
  • Currently 0/5 Stars.
  • 1
  • 2
  • 3
  • 4
  • 5
 
Accuracy:
  • Currently 0/5 Stars.
  • 1
  • 2
  • 3
  • 4
  • 5
 
click stars to rate
Chordie recommends:
Learn how to play guitar at JamPlay.com
Songbook:
Login to add this song to your songbook
Support the artist
Preview/buy this song
MSN Music
Why this non-profit ad?

 
login to add comments/video/corrections