Paano

Freestyle

 A-G#m-B
E -----------------------------------------------------------------------------|
B ---------4-5----------7-7/9\5-----------7-8-7--------------------------------|
G ----4-6-------------------------6-4-----------7-------4-2--------------------|
D -----------------------------------------------------------------------------|
A -----------------------------------------------------------------------------|
E -----------------------------------------------------------------------------|
E ---------------------------------------------7/9\7---------------------------|
B ---------4-5-----------7-7/9\5-----------------------------------------------|
G ----4-6--------------------------6-4-----------------------------------------|
D -----------------------------------------------------------------------------|
A -----------------------------------------------------------------------------|
E -----------------------------------------------------------------------------|


 E
 Paano ko sasabihin sa kanya....
 B
Paano kaya?... 
 EC#7susAB
Oh yakap, yakap ko siya   
 EC#7susAB
Dahil tunay, dagli rin dadaloy
 EC#7susAF#m-B
Ngunit paano ko sasabihin ito        
 EC#7susAB
Puso'y tiyak na masusugatan
 EC#7susAB
Kaya ba niyang maunawaan
 EC#7susAF#m-B
Paano ko sasabihin ito   

Refrain:
 AG#m
 Ayaw ko man saktan ang kanyang damdamin
 AG#m
 Ngunit kailangan malaman       
 AF#
 Puso'y, kumakaba, sana'y matapos na
 F#mG#mB
 Di makapag-umpisa, ohh...
 AG#m
 Ngunit kahit nais ko mang pilitin
 AG#m
 Di na kayang ibigin    
 AF#
 Paano ipadarama sa'yo sinta   
F#m G#m B slide to C pause
Na puso'y ari na ng iba... Woohh, woohh, woooh, ohhh

 EC#7susAB
 Oh labi, labi'y nagdahan-dahan
 EC#7susAB
Hapdsa'kin pa manggagaling
 EC#7susAF#m-B
Papaano ko sasabihin ito    
(Repeat Refrain)

Adlib: A-G#m-G-F#m
 A-G#m-B
 EC#7susAB
 Oh paano kaya
 EC#7susAB
 Paano, paano ko sasabihin
 EC#7susAB
 Oh, oh, paano, oh, hoh paano
(Repeat 'til fade)


A B C#7sus E F# F#m G#m
variations - click chord images
Transpose chords:
Tuning:
Cool service:
View: Size:
A  A  A
Rating:
Layout:
  • Currently 3.8/5 Stars.
  • 1
  • 2
  • 3
  • 4
  • 5
 
Accuracy:
  • Currently 3.1/5 Stars.
  • 1
  • 2
  • 3
  • 4
  • 5
 
click stars to rate
Chordie recommends:
Learn to play guitar with video-based, online guitar lessons at JamPlay.com
Songbook:
Login to add this song to your songbook
Support the artist
Preview/buy this song
MSN Music
Why this non-profit ad?

 
login to add comments/video/corrections