Chordie logo


Mit Dir   Freundeskreis



Artist: Freundeskreis
Title: Mit dir
Album: Esperanto
Web: http://www.freundeskreis10.de/
Tabbed by Akyo

Pattern 1 is played in the Verses by Max Herre, Pattern 2
in those of Joy Denalane and they alter in the chorus.
Pattern 2 is just up one tone, so to play it you can also 
just stick a capo on the 2. fret



Tuning: Standard


Pattern 1:

|-----0--------0------0--------0----|
|------0---------------0------0-----|
|---4--------4------4-------4-------|
|-2--------0------------------------| 
|-----------------4--------0--------|
|-----------------------------------|



Pattern 2:

|-----------------------------------|
|-----7-------7----7------7---------|
|---6--6-----6----6-6----6-6--------|
|-4---------------------------------| 
|----------7-----6------------------|


Important: The song above is NOT stored on the Chordie server. The original song is hosted at www.guitaretab.com. Chordie works as a search engine and provides on-the-fly formatting. Chordie does not index songs against artists/composers will. To remove this song please click here.

This song is displayed as text-only. Transposing and tuning is only available for chordpro-songs.

Login - add to songbook

Rating click stars to rate

Layout
Accuracy

SHARE PAGE  




You need to log in to post comments