Guitar Tabs, Chords and Lyrics


Travel   From Autumn To Ashes



-------------------------------------------------------------------------------
			    TRAVEL - From Autumn To Ashes
-------------------------------------------------------------------------------
Tabbed by:BFMVowns
Email:mackgoth@charter.net

Tuning:EADGBe

ok so ive had this song figured out since the day after i bought the CD, ive just been 
too lazy to actually tab it out, but here it is now, so enjoy...

intro on bass

G|------------------------------------|
D|------------------------------------|
A|----------66666666-555555555555-8888|
E|-33333333---------------------------|

intro/pre verse

e|-------------66---------------------------------|
B|------------------------------------------------|
G|----88-77-88----88-77-88------------------------|
D|-55----------------------8888-10101010-7777-8888|
A|------------------------------------------------|
E|------------------------------------------------|

e|-------------66---------------------------------|
B|------------------------------------------------|
G|----88-77-88----88-77-88---------------7777-8888|
D|-55----------------------8888-10101010----------|
A|------------------------------------------------|
E|------------------------------------------------|

verse

e|--------------------------------------------|
B|--------------------------------------------|
G|--------------------------------------------|
D|-------------88-----------------------------|
A|----66-55-66----66-55-66--------------------|
E|-33----------------------6666-8888-5555-6666|
PM .. .. .. ..    .. .. .. .... .... .... ....

e|--------------------------------------------|
B|--------------------------------------------|
G|--------------------------------------------|
D|-------------88-----------------------------|
A|----66-55-66----66-55-66-----------5555-6666|
E|-33----------------------6666-8888----------|
PM .. .. .. ..    .. .. .. .... .... .... ....

pre chorus

e|-----------------|-------------------------------------------------------|
B|-----------------|-------------------------------------------------------|
G|-----------------|77x-77x-77x-77x-88x-88x-88x-88x-1010x-1010x-1010x-1010x|
D|-55x-55x-55x-55x-|77x-77x-77x-77x-88x-88x-88x-88x-1010x-1010x-1010x-1010x|
A|-55x-55x-55x-55x-|55x-55x-55x-55x-66x-66x-66x-66x-8-8-x-8-8-x-8-8-x-8-8-x|
E|-33x-33x-33x-33x-|-------------------------------------------------------|
 \                 /
play this twice the
first and third times

chorus

e|-----------------------------------|
B|-----------------------------------|
G|------------------7777777777777777-|
D|-5555555555555555-7777777777777777-|
A|-5555555555555555-5555555555555555-|
E|-3333333333333333------------------|

e|--------------------------------------------------|
B|--------------------------------------------------|
G|-8888888888888888-10101010101010101010101010101010|
D|-8888888888888888-10101010101010101010101010101010|
A|-6666666666666666-8-8-8-8-8-8-8-8-8-8-8-8-8-8-8-8-|
E|--------------------------------------------------|

pre verse

verse

pre chorus

chorus

bridge

e|---------6---------------6---------------6---------------6b8r6-5-|
B|-----------------------------------------------------------------|
G|---8-7-8---8-7-8---8-7-8---8-7-8---8-7-8---8-7-8-5-8-7-8---------|
D|-5---------------7---------------8-------------------------------|
A|-----------------------------------------------------------------|
E|-----------------------------------------------------------------|

then...
e|---------6---------------6b8r6-5---------6-------------------------|
B|-------------------------------------------------------------------|
G|---8-7-8---8-7-8---8-7-8-----------8-7-8---8-7-8-------------------|
D|-5---------------7---------------8---------------8-8-10-10-7-7-8-8-|
A|-------------------------------------------------------------------|
E|-------------------------------------------------------------------|

final chorus

end on...
e|----------|
B|----------|
G|----------|
D|-5--------|
A|-5-[hold]-|
E|-3--------|

...so there it is
this is and awesome band, and this was an amazing album, even without Ben Perry *sad =[* 
still sound amazing, and im greatly awaiting any other releases they may have

enjoy the tab!!!


| b  Bend string
| r  Release bend
| .  Palm mute
| x  Mute note


Important: The song above is NOT stored on the Chordie server. The original song is hosted at www.guitaretab.com. Chordie works as a search engine and provides on-the-fly formatting. Chordie does not index songs against artists/composers will. To remove this song please click here.

This song is displayed as text-only. Transposing and tuning is only available for chordpro-songs.

Login - add to songbook

Rating click stars to rate

Layout
Accuracy

SHARE PAGE  




You need to log in to post comments