Guitar Tabs, Chords and Lyrics


Ambitions Of A Man   From The Pawn



"Ambitions Of A Man" by From The Pawn
 New Album out now!

DROP D
D
A
D
G
B
E

This sounds right Just get the Hammer ons in the lead right
and it it should sound !LEGIT!.
I didn't tab out the breakdown but you should be able to figure it out by your self, its not
hard.

| /  slide up
| \  slide down
| h  hammer-on
| p  pull-off
| x  Mute
| .  Palm Mute


LEAD (0:00-0:23)

E|-13h15p13--13--15--13--17-15--13h15p13--13--15--13--18-17|
B|--------13--13--13--13---------------13--13--13--13------|
G|---------------------------------------------------------| x 4
D|---------------------------------------------------------|
A|---------------------------------------------------------|
D|---------------------------------------------------------|

 ^^Just figure out the rhythm and speed to this and you will get it^^

RHYTHM(0:00-0:12)

E|--------------------------------------------|
B|--------------------------------------------|
G|--------------------------------------------|
D|-12-12-12-12\8-8-8-8-8h10-10-10-10\7-7-7-7-7| X 2
A|-12-12-12-12\8-8-8-8-8h10-10-10-10\7-7-7-7-7|
D|-12-12-12-12\8-8-8-8-8h10-10-10-10\7-7-7-7-7|

^this is alot of up stroke and down stroking so just listen to the song you will figure 
out. This is just the basic rhythm


RHYTHM(0:12-0:23)

E|--------------------------------------------------------|
B|--------------------------------------------------------|
G|--------------------------------------------------------|
D|-8-8-8-8-8-8h10-10-10-10-7-7-7-7-8-8-8-8-8-8-8-8-8-8-8-8| X2
A|-8-8-8-8-8-8h10-10-10-10-7-7-7-7-8-8-8-8-8-8-8-8-8-8-8-8|
D|-8-8-8-8-8-8h10-10-10-10-7-7-7-7-8-8-8-8-8-8-8-8-8-8-8-8|

Again, Figure out the Rhythm You will get it.


LEAD  (0:23-0:35)

E|----------------------------------------------------------------------|
B|----------------------------------------------------------------------|
G|-10-10-9-10-12-10-9--9-9-9-9/10-10-10-10/12-12-12-12/14-14-14\12-12-12|
D|--x--x-x--x--x--x-x--x-x-x-x/x---x--x--x/x---x--x--x/x---x--x\x---x--x|
A|--8--8-7--8-10--8-7--7-7-7-7/8---8--8--8/10-10-10-10/12-12-12\10-10-10|
D|----------------------------------------------------------------------|

E|-------------------------------------------------------------------------------|
B|-------------------------------------------------------------------------------|
G|-14-14-12-14-15-14-12--12-12-12-12/14-14-14-14/15-15-15-15/17-17-17-17\15-15-15|
D|--x--x--x--x--x--x--x---x--x--x--x/-x--x--x--x/x---x--x--x/x---x--x--x\x---x--x|
A|-12-12-10-12-13-12-10--10-10-10-10/12-12-12-12/13-13-13-13/15-15-15-15\13-13-13|
D|-------------------------------------------------------------------------------|

RHYTHM(0:23-0:35)

E|-----------------------------------------------------------------|
B|-----------------------------------------------------------------|
G|-----------------------------------------------------------------|
D|-8-8-7-8-10-8-7--7-7-7-7/8-8-8-8/10-10-10-10/12-12-12-12\10-10-10|
A|-8-8-7-8-10-8-7--7-7-7-7/8-8-8-8/10-10-10-10/12-12-12-12\10-10-10|
D|-8-8-7-8-10-8-7--7-7-7-7/8-8-8-8/10-10-10-10/12-12-12-12\10-10-10|

E|-------------------------------------------------------------------------------|
B|-------------------------------------------------------------------------------|
G|-------------------------------------------------------------------------------|
D|-12-12-10-12-13-12-10--10-10-10-10/12-12-12-12/13-13-13-13/15-15-15-15\13-13-13|
A|-12-12-10-12-13-12-10--10-10-10-10/12-12-12-12/13-13-13-13/15-15-15-15\13-13-13|
D|-12-12-10-12-13-12-10--10-10-10-10/12-12-12-12/13-13-13-13/15-15-15-15\13-13-13|


LEAD (0:35-0:57)

E|----------------------------|
B|----------------------------|
G|---------------------2h3-2--|x4
D|-00-3p0p2p0-00-00-3p0-----3-|
A|-00---------00-00-----------|
D|-00---------00-00-----------|

^the Chugs change but you can figure it out just listen. The Rhythm is preety much the 
i didn't tab out the breakdown cuz its not that hard to figure out.

BREAKDOWN

LEAD (1:18-1:29)

E|---------------------------------------------|
B|---------------------------------------------|
G|-----5p3p2------5p3p2--------5p3p2------5p3p2|x2
D|3-2-3------5-2-2------7-3-2-3------5-2-2-----|
A|1----------3----------5------------3---------|
D|---------------------------------------------|


RHYTHM(1:18-1:29)


E|--------------------------------------------------|
B|--------------------------------------------------|
G|--------------------------------------------------|
D|-8-88888-10-1010101010-12-1212121212-10-1010101010|
A|-8-88888-10-1010101010-12-1212121212-10-1010101010|
D|-8-88888-10-1010101010-12-1212121212-10-1010101010|
     .....     . . . . .     . . . . .     . . . . .

E|---------------------------|
B|---------------------------|
G|---------------------------|
D|-3-33333-5-55555-7-77777-5-|
A|-1-11111-3-33333-5-55555-3-|
D|---------------------------|


OUTRO
LEAD AND RHYTHM(1:29-1:56)

E|---------------------------|
B|---------------------------|
G|---------------------------|x4
D|-7------5------7------3----|
A|-5-x16--3-x16--5-x16--1-x16|
D|---------------------------|


On the 2 measure the lead plays the intro again from about 1:43 to 1:56



Important: The song above is NOT stored on the Chordie server. The original song is hosted at www.guitaretab.com. Chordie works as a search engine and provides on-the-fly formatting. Chordie does not index songs against artists'/composers' will. To remove this song please click here.

This song is displayed as text-only. Transposing and tuning is only available for chordpro-songs.

Login - add to songbook

Rating click stars to rate

Layout
Accuracy

SHARE PAGE  




You need to log in to post comments