Guitar Tabs, Chords and Lyrics


Head   John Frusciante



E --------------------------------------------------------------------------|
B --------------------------------------------------------------------------|
G --------------------------------------------------------------------------|
D --------------------------------------------------------------------------|
A -2-2p0-2-2h4-2h4-2--0-2---2---0--4---0-0h1--4/5/4/5/4---------------------|
E -------------------2----2---2------2--------------------------------------|

verse

E -2----0----2--------------------------------------------------------------|
B -4----2----2--------------------------------------------------------------|
G -4----2----3--------------------------------------------------------------|
D -4-x8-2-x8-4-x16----------------------------------------------------------|
A -2----0----4--------------------------------------------------------------|


Important: The song above is NOT stored on the Chordie server. The original song is hosted at www.guitaretab.com. Chordie works as a search engine and provides on-the-fly formatting. Chordie does not index songs against artists'/composers' will. To remove this song please click here.

This song is displayed as text-only. Transposing and tuning is only available for chordpro-songs.

Login - add to songbook

Rating click stars to rate

Layout
Accuracy

SHARE PAGE  




You need to log in to post comments