Invisible Movement

John Frusciante

-=-=-=-=-=-=-=-=-=-=-=-=-=-=-=-=-=-=-=-=-=-

-=-=-=-=-=-=-=-=-=-=-=-=-=-=-=-=-=-=-=-=-=-
-=-=-=-=-=-=-=-=-=-=-=-=-=-=-=-=-=-=-=-=-=-
E|-------------------------------|---------------------|
B|-----------1-------------0-----|-------1--------0----|
G|-----2---2---2------2--2---2---|---------------------|
D|-------------------------------|---------------------|
A|-0-----------------------------|---0-----------------|
e|-----------------3-------------|------------3--------|

 AmG
E|-------------------------------|
B|-------------------------------|
G|-2--------------0--------------|
D|-------------------------------|
A|-0-----------------------------|
e|----------------3--------------|


Or

Intro: Guitar 1

E|------------------------------------------------------------|
B|------------------------------------------------------------|
G|--------5--------------4--------------5-------------4-------|
D|---7-7----7-------7-7----7-7-----7-7-----7-----7-7----7-7---|
A|------------------------------------------------------------|
e|-5-------------3---------------5------------3---------------|

Guitar 2:

E|---------------------------------------------------------------------|
B|---------------------------------------------------------------------|
G|-----5--------4----------5-------4-------5--------4--------5-------4-|
D|---------------------------------------------------------------------|
A|---------------------------------------------------------------------|
e|-5--------3---------5--------3-------5-------3--------5--------3-----|


Verse:

 AmG
 It's a time when you think it's all over
 AmG
 Live a life, then you roll over and die
 AmGAmG
 I don't feel pain, I don't travel this line     
 AmG
 Levitate and feel the ground get closer

 AmG
 Ecstacy made every step a mile -
 AmGAmG
 When it becomes waste, why hold on for dear life?      

Chorus:

 FGAm
 White pain in the blue-eyed breakup
 FGAm
 All paths divide
 FGAm
 Life has a way of opening up.

 FGE
Verse:

 AmG
 All names travel with their owners
 AmG
 Though they've no space, they move all around
 AmGAmG
 I see invisible movement in every town         
 AmG
 Every cry is a seperate emotion

 AmG
 Happenings are planned and then they arrive
 AmGAmG
 They go on with or without you there       

Chorus X 2

End: Am

Chords:

 AmGFE
E|--0--|--3--|--1--|-0-|
B|--1--|--3--|--1--|-0-|
G|--2--|--0--|--2--|-1-|
D|--2--|--0--|--3--|-2-|
A|--0--|--2--|--3--|-2-|
e|--X--|--3--|--1--|-0-|
-=-=-=-=-=-=-=-=-=-=-=-=-=--=-=-=-=-=-=-=-=-=-=-=-=-=-=-=-=-=-=--=-=-=-=-=--

Produce By John Frusciante
Mixed By Jimmy Boyled
Mixing Assisted By Brian Grimmel
Mastered By Vlado Meller At Sony Music Studio, New York.
-=-=-=-=-=-=-=-=-=-=-=-=-=--=-=-=-=-=-=-=-=-=-=-=-=-=-=-=-=-=-=--=-=-=-=-=--				



Am E F G
variations - click chord images
Transpose chords:
Tuning:
Cool service:
View: Size:
A  A  A
Rating:
Layout:
  • Currently 2.6/5 Stars.
  • 1
  • 2
  • 3
  • 4
  • 5
 
Accuracy:
  • Currently 3.1/5 Stars.
  • 1
  • 2
  • 3
  • 4
  • 5
 
click stars to rate
Chordie recommends:
Learn to play guitar with video-based, online guitar lessons at JamPlay.com
Songbook:
Login to add this song to your songbook
Support the artist
Preview/buy this song
MSN Music
Why this non-profit ad?

 
login to add comments/video/corrections