Guitar Tabs, Chords and Lyrics


Twist Of Death   Fuck Im Dead




Band: Fuck...I'm Dead 
Album: Bring On The Dead 
Song: Twist Of Death 

Copyright (c) Razorback Records, 2001 



Code: 
. - palm mute           / - slide up to 
\ - slide down to       x – Staccato 
h - hammer on           p - pull off 
, - slight palm mute    () - ghost note, sustained note 
" - tremolo note         - Trill 
L – left channel only   R – right channel only 
* - see comment 

Suffixes for bend 
f - full bend       h - half bend 
q - quarter bend    t - tap bend 
^ - Hold bend       r - release bend 
~ - vibrato bend 

Suffixes for harmonic 
ph - pinched harmonic   n – natural/artificial harmonic 

Tuning B F# B E G# C# 

Intro (0:08) 
|-------------------------| 
|-------------------------| 
|-------------------------| 
|-------------------------| 
|-------55-0--------------| 
|-664466---0-------773344-| 

Riff 1a (0:12) 
|--------------------------------------------| 
|--------------------------------------------| 
|--------------------------------------------| 
|-----88775-4-5-4-----88775-4-5-4------------| 
|-3355----4-3-4-3-3355----4-3-4-3------------| 
|---------------------------------4444--4444-| 
                                  ....  .... 

Riff 1b (0:17) 
|-------------------------------------------------| 
|-------------------------------------------------| 
|-------------------------------------------------| 
|-----8877------------8877---------6"---5"---3"---| 
|-3355----332244333355----33224433----------------| 
|-------------------------------------------------| 

Riff 1c (0:23) 
|----------------------------------| 
|----------------------------------| 
|----------------------------3"----| 
|-----8877---------6"---5"---------| 
|-3355----33224433-----------------| 
|----------------------------------| 

Riff 2 (0:28) play twice 
|------------------------------------| 
|------------------------------------| 
|------------------------------------| 
|-----55------66-------3"------------| 
|–------55------666"------6"-5"-3"---| 
|-3333----6666-----------------------| 

Riff 3 (0:35) play 4 times 
|----------|----------------------------| 
|----------|----------------------------| 
|----------|----------------------------| 
|----------|----------------------------| 
|-------55-|-------6"--5"-------6"--8"--| 
|-664466---|-6-4"----------4"-----------| 
  ........     .           . 
|----------|----------------------------| 
|----------|----------------------------| 
|----------|----------------------------| 
|----------|-------4"--3"-------4"--6"--| 
|-------55-|----------------------------| 
|-664466---|-6-4"----------4"-----------| 
  ........     .           . 

Riff 1a x 1 (0:51) without the muted quadruplets at the end 
Riff 1c x 1 (0:55) 
Riff 2 x 1 (1:02) 

End 
|----------------------------| 
|----------------------------| 
|----------------------------| 
|----------------------------| 
|–------------------------0--| 
|-4444--4444--4444--4444--0--| 
  ....  ....  ....  ....  x






Important: The song above is NOT stored on the Chordie server. The original song is hosted at www.guitaretab.com. Chordie works as a search engine and provides on-the-fly formatting. Chordie does not index songs against artists'/composers' will. To remove this song please click here.

This song is displayed as text-only. Transposing and tuning is only available for chordpro-songs.

Login - add to songbook

Rating click stars to rate

Layout
Accuracy

SHARE PAGE  




You need to log in to post comments