Chordie logo


A Fraction Off Death   Fuck Im Dead



Band: Fuck...I'm Dead
Song: A Fraction Off Death
Album: Bring On The Dead

Transcribed by: Andrew Collyer
Contact: the_hauntedcrown@hotmail.com

Copyright (c) Razorback Records, 2001

TUNING: B F# B E G# C#

. - palm mute / - slide up to
 - slide down to ~ - vibrato
h - hammer on p - pull off
, - slight palm mute () - ghost note, sustained note
" - tremolo note  - Trill

Suffixes for bend
f - full bend h - half bend
ph - pinched harmonic q - quarter bend
t - tap bend * - see comment
^ - Hold bend r - release bend
x - Stuccatto ~ - vibrato bend

Riff 1a
--------------------------------------------------|
--------------------------------------------------|
--------------------------------------------------|
---3-1-0---2---1---3-1-0--------------------------|
-2-------2---2---2--------------------------------|
-------------------------2-2-2-2-2-2-4-4-4-4-4-4--|
                         . . . . . . . . . . . .

Riff 1b
----------------------------------|
----------------------------------|
----------------------------------|
---3-1-0---2---1---3-1-0---2---1--|
-2-------2---2---2-------2---2----|
----------------------------------|

Fill 1 (first drum roll)
-----------------|
-----------------|
-----------------|
----5-3-1-0-1-3--|
-5---------------|
-5---------------|

Riff 2 (play 4 times)
------------------|
------------------|
------------------|
---3-5-1-0-1-3-1--|
-2----------------|
------------------|

Riff 3
--------------------------------------------------------------|
--------------------------------------------------------------|
-------4-----4-4-4-------------4-----4-4-4--------------------|
-----------------------4---------------------7-4--------------|
-4-4-4---4-4-------4-7---4-4-4---4-4-------4-----7-6-5-4-3-2--|
-------------------------------------------------7\6\5\4\3\2--|
 . . .   . .       . . . . . .   . .       . . .

Riff 4
------------------------11ph-------------------|
-----------------------------------------------|
-----------------------------------------------|
----4----------------5-------------------------|
-1--2------2-----3ph-3-------------------------|
-1-----1-1---1-1---------------221221-221-221--|
       . . . . . .             ...... ... ...

Riff 5 (play 8 times)
--------------------|
--------------------|
--------------------|
---------6-6-7-6-6--|
---------4-4/5\4-4--|
-11111111-----------|
 ........

Riff 6
----------------------------------|
----------------------------------|
-----6"-7"------6"-9-7"--6"-9-7"--|
-----4"-5"------4"-7\5"--4"-7\5"--|
----------------------------------|
-0701-------0701------------------|
 ....       ....

Riff 7 (play twice) not sure about this one.
-----------------|
-----------------|
-----------------|
-----------------|
-----3--------3--|
-0701-07010302---|
 .... ........

Riff 8 (play 4 times)
----------------------------------|
----------------------------------|
----------------------------------|
-----3333555511110000111133331111-|
----------------------------------|
-5555-----------------------------|

Fill 2
----13ph--|
----------|
----------|
-5--------|
-3--------|
----------|

Riff 9 (play till end) FADE OUT
--------------------------------11ph--|
--------------------------------------|
--------1------7------------7---------|
--------2----7----4--3----7---7-------|
-0--------/5------1--0--5-------------|
-0--0-0-------------------------------|


Important: The song above is NOT stored on the Chordie server. The original song is hosted at www.guitaretab.com. Chordie works as a search engine and provides on-the-fly formatting. Chordie does not index songs against artists/composers will. To remove this song please click here.

This song is displayed as text-only. Transposing and tuning is only available for chordpro-songs.

Login - add to songbook

Rating click stars to rate

Layout
Accuracy

SHARE PAGE  




You need to log in to post comments