Guitar Tabs, Chords and Lyrics


Strangelight   Fugazi



this is a wonderfull song by Fugazi i hope you like it
comments??
INTRO 1
E|-9-12--9-12-9------9--12h9--------|
B|--------------9h10-------10-10-9--|
G|--------------------------------9-|
D|----------------------------------|
A|----------------------------------|
E|----------------------------------|

INTRO 2
E|-----------------------------------|
B|-----------------------------------|
G|---------0-------------------------|
D|-------5---5-----0-----------------|
A|-----4---------5--5----------------|


Important: The song above is NOT stored on the Chordie server. The original song is hosted at www.guitaretab.com. Chordie works as a search engine and provides on-the-fly formatting. Chordie does not index songs against artists/composers will. To remove this song please click here.

This song is displayed as text-only. Transposing and tuning is only available for chordpro-songs.

Login - add to songbook

Rating click stars to rate

Layout
Accuracy

SHARE PAGE  




You need to log in to post comments