Chordie logo

la     Fugees



My first tab. Hope you enjoy it.

MAIN RIFF

E-----------------------------------------------|
B-------------1--------------1-----1------------|
G------6------1--------------1-----1------------|
D------6----------------------------------------|
A-----------------------------------------------|
E---6------1------4--3----1-----1------9--8-----|

At 1:40

E---------------------------------------|
B---------------------------------------|
G-----6----8----6-----8-----6-----8-----|
D-----6----8----6-----8-----6-----8-----|
A---------------------------------------|
E--6----8----6-----8-----6-----8--------|


Important: The song above is NOT stored on the Chordie server. The original song is hosted at www.guitaretab.com. Chordie works as a search engine and provides on-the-fly formatting. Chordie does not index songs against artists/composers will. To remove this song please click here.

This song is displayed as text-only. Transposing and tuning is only available for chordpro-songs.

Rating click stars to rate

Layout
Accuracy

SHARE PAGE  

You need to log in to post comments