Chordie logo

Victim Of Society   Funeral Dress



e-----------------------------------------------------------|
B-----------------------------------------------------------|
G-----------------------------------------------------------|
D---5-5--x-5-5--x-5-5--x-5-5--x-6-6--x-6-6--x-8-8--x-8-8--x-|
A---5-5--x-5-5--x-5-5--x-5-5--x-6-6--x-4-4--x-8-8--x-8-8--x-|
E---3-3--x-3-5--x-3-3--x-3-3--x-4-4--x-4-4--x-6-6--x-6-6--x-|



e---------------------------------|
B---------------------------------|
G---------------------------------|
D---8--------6--------8--------6--|
A---8--------6--------8--------6--|


Important: The song above is NOT stored on the Chordie server. The original song is hosted at www.guitaretab.com. Chordie works as a search engine and provides on-the-fly formatting. Chordie does not index songs against artists/composers will. To remove this song please click here.

This song is displayed as text-only. Transposing and tuning is only available for chordpro-songs.

Login - add to songbook

Rating click stars to rate

Layout
Accuracy

SHARE PAGE  



You need to log in to post comments